Throwdown - Forever Chords & Tabs

 

Forever Chords & Tabs

Throwdown Chords & Tabs

Version: 1 Type: Tab 0 ratings
1 star 2 stars 3 stars 4 stars 5 stars
comments

Forever Tab

   
Song: Forever
Artist: Throwdown
Album: Haymaker
Tabbed by: Christian / silent_warrior_@hotmail.com

^ - Bend then release
* - Natural Harmonic
PM - Palm mute
h - Hammer on
\ - Slide down
~ - Let ring


Tuning: B F# B E G# C#



Intro/Verse
|---------------------------------|
|---------------------------------|
|---------------------------------|
|---------------------------------|
|---------------------------------|
|-6-0-0-6-0-0-6^---6-0-0-6-0-0-6^-|


|-------|
|-------|
|-------|
|-------|
|-2-1-2-|
|-2-1-2-|


|-------------------|
|-------------------|
|-------------------|
|-------------------|
|-------------------|
|-4*-4*-4*-4*-4*-4*-|


0:38
|-------------------------------|
|-------------------------------|
|-------------------------------|
|-------------------------------|
|-0-1--000-1-0---000-1-0--0-1-3-|
|-0-1--000-1-0---000-1-0--0-1-3-|
PM     ---       ---


0:50
|--------------------------|
|--------------------------|
|--------------------------|
|--------------------------|
|-0-0-0---0000-0--0-0--0-1-|
|-0-0-0---0000-0--0-0--0-1-|
PM- - -   ----    - -  -


1:01
|--------------------------------------------------------|
|--------------------------------------------------------|
|--------------------------------------------------------|
|--------------------------------------------------------|
|-0-0-0---0-0-0-0--0-0--0-1---0-0-0--0-0-0-0--0-0--0-1h3-|
|-0-0-0---0-0-0-0--0-0--0-1---0-0-0--0-0-0-0--0-0--0-1h3-|
PM- - -   - - -    - -  -     - - -  - - -    - -  -


1:28
|---------------------------------|
|---------------------------------|
|---------------------------------|
|---------------------------------|
|-6-0-0-6-0-0-6---6-0-0-6-0-0-6---|
|-6-0-0-6-0-0-6---6-0-0-6-0-0-6---|


2:03
|-------------------------------------------------------------------|
|-------------------------------------------------------------------|
|-------------------------------------------------------------------|
|-------------------------------------------------------------------|
|-0-0-0-0-0-0-0-0-0-0-0-0-0-1h3-6---0-0-0-0-0-0-0-0-0-0-0-0-0-------|
|-0-0-0-0-0-0-0-0-0-0-0-0-0-1h3-6---0-0-0-0-0-0-0-0-0-0-0-0-0-6\3-0-|
PM  - -   - - -   - -   - -           - -   - - -   - -   - -


2:13
|------------------|
|------------------|
|------------------|
|------------------|
|------------------|
|-1h3-6-6-6-6-6-6--|

[ Tab from: http://www.guitartabs.cc/tabs/t/throwdown/forever_tab.html ]
2:15
|-------------------------------------------------------------------|
|-------------------------------------------------------------------|
|-------------------------------------------------------------------|
|-------------------------------------------------------------------|
|---0-0---0-0-0---0-0---0-0-1h3-6-----0-0---0-0-0---0-0---0-0-------|
|-0-0-0-0-0-0-0-0-0-0-0-0-0-1h3-6---0-0-0-0-0-0-0-0-0-0-0-0-0-6\3-0-|
PM  - -   - - -   - -   - -           - -   - - -   - -   - -


|---------------|
|---------------|
|---------------|
|---------------|
|---------------|
|-1h3-6-6-6-6-6-|


2:26
|-------------------------------------------------------------|
|-------------------------------------------------------------|
|-------------------------------------------------------------|
|-------------------------------------------------------------|
|---0-0----0-0----0-0----1h3-6----0-0----0-0----0-0----1-1-0--|
|-0-0-0-0--0-0-0--0-0-0--1h3-6--0-0-0-0--0-0-0--0-0-0--1-1-0--|
PM  - -    - -    - -             - -    - -    - -


|---------------|
|---------------|
|---------------|
|---------------|
|---------------|
|-1h3-6-6-6-6-6-|


2:38
|-------------------------------------------------------------------|
|-------------------------------------------------------------------|
|-------------------------------------------------------------------|
|-------------------------------------------------------------------|
|---0-0---0-0-0---0-0---0-0-1h3-6-----0-0---0-0-0---0-0---0-0-------|
|-0-0-0-0-0-0-0-0-0-0-0-0-0-1h3-6---0-0-0-0-0-0-0-0-0-0-0-0-0-6\3-0-|
PM  - -   - - -   - -   - -           - -   - - -   - -   - -


2:49
|---------|
|---------|
|---------|
|---------|
|-0~------|
|-0~------|


2:56
|----------------------|
|----------------------|
|----------------------|
|----------------------|
|-0-0-0--000000-0--0-0-|
|-0-0-0--000000-0--0-0-|
PM- - -  ------    - -


3:06
|---------------------------|
|---------------------------|
|---------------------------|
|---------------------------|
|-0-0-0--000000-0--0-0-0-0--|
|-0-0-0--000000-0--0-0-0-0--|
PM- - -  ------    - - - - 


3:09
|---------------------------------------------------------|
|---------------------------------------------------------|
|---------------------------------------------------------|
|---------------------------------------------------------|
|-0-0-0--000000-0--0-0--0-1---0-0-0--000000-0--0-0--0-1h3-|
|-0-0-0--000000-0--0-0--0-1---0-0-0--000000-0--0-0--0-1h3-|
PM- - -  ------    - -  -     - - -  ------    - -  -


3:23
|----------------------|
|----------------------|
|----------------------|
|----------------------|
|-0-0-0--000000-0--0-0-|
|-0-0-0--000000-0--0-0-|
PM- - -  ------    - -
Comments