Throwdown - Face The Mirror Chords & Tabs

 

Face The Mirror Chords & Tabs

Throwdown Chords & Tabs

Version: 1 Type: Tab 0 ratings
1 star 2 stars 3 stars 4 stars 5 stars
comments

Face The Mirror Tab

Throwdown
Face The Mirror


Tuning: CGCFAD  

* Palm Mute

Guitars Doing The Same

 0:00
|---------------------------------|
|---------------------------------|
|---------------------------------|
|--------------------------4-3-1--|
|--------------------------4-3-1--|
|-3-0-0-3-0-0-3-0-0-3-0-0--4-3-1--|
  
 0:04 + 1:07        
|-------------------------------------------------|
|-------------------------------------------------|
|--------------5-6-6-6---------------5-6-6-9-9-9--|
|--------------3-4-4-4---------------3-4-4-7-7-7--|
|--------------3-4-4-4---------------3-4-4-7-7-7--|
|-3-0-0-3-0-0--3-4-4-4--3-0-0-3-0-0--3-4-4-7-7-7--|
[ Tab from: http://www.guitartabs.cc/tabs/t/throwdown/face_the_mirror_tab.html ]
 0:14 + 1:17         0:23 + 1:25
|-------------------|--------------|
|-------------------|--------------|
|-------------------|--------------|
|-0-3-1-4-3---------|-0-3-1-4-3-6--|
|-0-3-1-4-3---------|-0-3-1-4-3-6--|
|-0-3-1-4-3-3-0-3-0-|-0-3-1-4-3-6--|
 
 0:25 + 1:28
|----------------------------------|
|----------------------------------|
|----------------------------------|
|-0-00-1--0-00-3--0-00-4--0-00-1-4-|
|-0-00-1--0-00-3--0-00-4--0-00-1-4-|
|-0-00-1--0-00-3--0-00-4--0-00-1-4-|
    *       *       *       **
 0:46 + 1:49
|----------------------| 
|----------------------|
|----------------------|
|-0--5-3-0-3--4-1-0-1--|
|-0--5-3-0-3--4-1-0-1--|
|-0--5-3-0-3--4-1-0-1--| after the forth time, fill with strummed harmonics

 2:10 + 2:42
|---------------------------|
|---------------------------|
|---------------------------|
|---------------------------|
|-0--00-0--00-0--00-0-00-\--|
|-0--00-0--00-0--00-0-00-\--|
     **    **    **   **
 2:31
|--------------------------------|
|--------------------------------|
|--------------------------------|
|--------------------------------|
|-0-0000-0-0000-0-0000-0-0000-\--|
|-0-0000-0-0000-0-0000-0-0000-\--|
    ****   ****   ****   ****
 2:52
|---------------------|
|---------------------|
|---------------------|
|-0--1-0--3-0--4-0--1-|
|-0--1-0--3-0--4-0--1-|
|-0--1-0--3-0--4-0--1-|
 
 2:58
|---------------------------------------------------|
|---------------------------------------------------|
|---------------------------------------------------|
|---------------------------------------------------|
|-00-0000-00--00-0000-00--00-0000-00--00-0000-01-04-|
|-00-0000-00--00-0000-00--00-0000-00--00-0000-01-04-|
  ** **** **  ** **** **  ** **** **  ** **** *  *
Comments