Throwdown - Dont Lose Sight Chords & Tabs

 

Dont Lose Sight Chords & Tabs

Throwdown Chords & Tabs

Version: 2 Type: Tab 0 ratings
1 star 2 stars 3 stars 4 stars 5 stars
comments

Dont Lose Sight Tab

Don't Lose Sight by Throwdown
Tabbed by Jason

Tuning drop B
[ Tab from: http://www.guitartabs.cc/tabs/t/throwdown/dont_lose_sight_tab_ver_2.html ]
Intro/Verse
|----------------------------------------------------------|
|----------------------------------------------------------|
|----------------------------------------------------------|
|-----7---5/7-7/5---------------------7---5/7-7/5----------|
|-0-0-5-0-3/5-5/3-0-0-5-0-3/5-5/6-0-0-5-0-3/5-5/3-6--5--3--|
|-0-0---0---------0-0-5-0-3/5-5/6-0-0---0---------6--5--3--|
pm all 0s
Chorus
|--------------------------------------------------|
|--------------------------------------------------|
|--------------------------------------------------|
|-----------------------7--------------------------|
|-0--6--0-6--0--6-5-0-6-5--0--6--0-6--0--6-5-0-6-3-|
|-0--6--0-6--0--6-5-0-6----0--6--0-6--0--6-5-0-6-3-|

Next verse is same as first except end with
|----------|-instead of-|
|----------|------------|
|----------|------------|
|-8--10-8--|------------|
|-6--8--6--|-6--5--3----|
|----------|-6--5--3----|

"Till the day you die STRAIGHT EDGE"
|-----------------------|-----------------------|
|-----------------------|-----------------------|
|-----------------------|-----------------------|
|-----------------------|-----------------------|
|-0-0-0-0--0--0-0--0-0--|-----------------------|
|-0-0-0-0--0--0-0--0-0--|-8b--0-0--0--3b--0--0--|
pm. . . .  .  . .  . .
Last verse and chorus
|-----------------------|
|-----------------------|
|-----------------------|
|-----------------------|
|-0-0--0-0-0--0----5----|
|-0-0--0-0-0--0-6-----6-|
pm. .  . . .  .
Comments