Throwdown - Baby Got Back Chords & Tabs

 

Baby Got Back Chords & Tabs

Throwdown Chords & Tabs

Version: 4 Type: Tab 0 ratings
1 star 2 stars 3 stars 4 stars 5 stars
comments

Baby Got Back Tab

-------------------------------------------------------------------------------
			     Baby Got Back - THROWDOWN
-------------------------------------------------------------------------------
Tabbed by: Useless (Nick k)
Email: nickkosterman@yahoo.ca

Tuning: Drop D

Intro (Palm Mute)
e|--------------------------------------------------------------------------|
B|--------------------------------------------------------------------------|
G|--------------------------------------------------------------------------|
D|--------------------------------------------------------------------------|
A|--------------------------------------------------------------------------|
D|---0-0-0-3-1-1-3-1-0-0-0-3-1-1-3-1-0-0-0----------------------------------|
[ Tab from: http://www.guitartabs.cc/tabs/t/throwdown/baby_got_back_tab_ver_4.html ]
Verse
e|-------------8-8-------------------8-8------------------------------8-8---|
B|-------------6-6-------------------6-6------------------------------6-6---|
G|-------------6-6-------------------6-6------------------------------6-6---|
D|--------------------------------------------------------------------------|
A|---0---0---------------0---0-------------0-0-0-3-1-1-3-1---0---0----------|
D|---0---0---------------0---0-------------0-0-0-3-1-1-3-1---0---0----------|

This Song isnt that hard. You can pretty much just bullshi* your way through the rest of
the song. it alternates riffs. All pretty much just the d and a strings open. Im pretty
sure that it is in a lower tuning then drop d. definatly. but im not sure which tuning.
Thanks. And its not perfect im pretty sure of that. But its alot better then the crap on
the site. thanks ppl. have a great day. (Tech crew for life!!!)
Comments