Throwdown - Baby Got Back Chords & Tabs

 

Baby Got Back Chords & Tabs

Throwdown Chords & Tabs

Version: 2 Type: Tab 0 ratings
1 star 2 stars 3 stars 4 stars 5 stars
comments

Baby Got Back Tab

verse 1                        verse 2
(----------------------------|-----------------------
(----------------------------|-----------------------
(----------------------------|-----------------------
(----------------------------|-0-0-0-3-1-0-3-1-------
(-------------------(x8)-----|-0-0-0-3-1-0-3-1-------
(-0-0-0-3-1-0-3-1------------|-0-0-0-3-1-0-3-1-------


verse3
(----------9----------------
(----------9----------------
(----------7----------------
(-0---0---------------------
(-0---0---------------------
(-0---0---------------------


(Order)
1 x8
3 x3
2 x1
3 x3
2 x1


contiune trow rest of the song
[ Tab from: http://www.guitartabs.cc/tabs/t/throwdown/baby_got_back_tab_ver_2.html ]
Comments