Throwdown - Baby Got Back Chords & Tabs

 

Baby Got Back Chords & Tabs

Throwdown Chords & Tabs

Version: 1 Type: Tab 0 ratings
1 star 2 stars 3 stars 4 stars 5 stars
comments

Baby Got Back Tab

Throwdown - Baby Got Back
By:Andrew Mcshan(Guitarguyx182@aol.com)
[ Tab from: http://www.guitartabs.cc/tabs/t/throwdown/baby_got_back_tab.html ]
Intro
e|---------------------------------------------------------------------------|
B|---------------------------------------------------------------------------|
G|---------------------------------------------------------------------------|
D|---------------------------------------------------------------------------|
A|-----5-3-3-3-5-3-----5-3-3-3-5-3-------------------------------------------|
E|-7-7-------------7-7-------------------------------------------------------|
PM.................................
Verse
e|---------------------------------------------------------------------------|
B|-----7^------7^-----7^-----------------------------------------------------|
G|---------------------------------------------------------------------------|
D|-9-9-----9-9----9-9--------------------------------------------------------|
A|-9-9-----9-9----9-9-------5-3-3-3--5-3-------------------------------------|
E|-7-7-----7-7----7-7---7-7--------------------------------------------------|
  pm..     ....   ...   Pm..............
Chorus 
e|---------------------------------------------------------------------------|
B|---------------------------------------------------------------------------|
G|------7-7-5-7-5------------------------------------------------------------|
D|-9-9--7-7-5-7-5------------------------------------------------------------|
A|-9-9--5-5-3-5-3------------------------------------------------------------|
E|-7-7-----------------------------------------------------------------------|
Pm..............
Post Chorus "Shake it ,shake it,"
e|---------------------------------------------------------------------------|
B|---6/7^----6/7^------------------------------------------------------------|
G|---------------------------------------------------------------------------|
D|-9-----9-----------9--9-9-9-9----------------------------------------------|
A|-9-----9-----------9--9-9-9-9----------------------------------------------|
E|-7-----7-----------7--7-7-7-7----------------------------------------------|
                     Pm.....
Bridge
e|---------------------------------------------------------------------------|
B|-7-7-7-7-7-7-77-8-8-8-8-8-8-8--7-7-7-7-7-7-7-7-7--7-8-8-8-8--9--8-9-7-7-7--|
G|---------------------------------------------------------------------------|
D|---------------------------------------------------------------------------|
A|---------------------------------------------------------------------------|
E|---------------------------------------------------------------------------|
Comments