Through The Eyes Of The Dead - Two Inches From A Main Artery Chords & Tabs

 

Two Inches From A Main Artery Chords & Tabs

Through The Eyes Of The Dead Chords & Tabs

Version: 1 Type: Tab

Two Inches From A Main Artery Tab

Artist: Through the Eyes of the Dead
Album: Bloodlust
Song: Two Inches From a Main Artery

I don't know how TTEOTD tune, but I tabbed this in Drop C.


Intro                            2x
|-----------------------------------|
|-----------------------------------|
|-----------------------------------| <--guitar 1 (left)
|-------10----7--6-------5----3--1--|
|--0----------------0---------------|
|--0----------------0---------------|
|
|-----------------------------------|
|-----------------------------------|
|-----------------------------------| <--guitar 2 (right)
|-------10----7--6-------5----3--1--|
|--0----------------0---------------|
|--0----------------0---------------|

Main riff build-up
|--------------------------------------|
|--------------------------------------|
|--------------------------------------|
|--------------------------------------|
|--000-0-0-000---0000-0-0-000---00000--|
|--000-0-0-000---0000-0-0-000---00000--|

Main riff                                         2x
|----------------------------------------------------|
|----------------------------------------------------|
|----------------------------------------------------|
|--2-----------------4-7-6---------------------------|
|--2-00000000000000--4-7-6-00000000000000-0-0-6-6-5--|
|--2-00000000000000--4-7-6-00000000000000-0-0-6-6-5--|

|-----------------------------------------------------|
|-----------------------------------------------------|
|-----------------------------------------------------|
|--3--------------------------------------------------|
|--3-00000000000000----------444----------------------|
|--3-00000000000000--7770000----0000-5550000-3330000--|

Verse (4x)
|------------------------|------------------------|
|------------------------|------------------------|
|------------------------|------------------------|
|------------------------|------------------------|
|--0-0--4p3-3-5p4-3-2h3--|--0-0--4p3-3-5p4-3-2h3--|
|--0-0-------------------|--0-0-------------------|

|------------------------------------------------|
|------------------------------------------------|
|------------------------------------------------|
|------------------------------------------------|
|--00-8-00-7-00-10-00-8-00-11-00-10-00-8-00-788--|
|------------------------------------------------|

“You can’t save her”
|---------------------------------------------------------------------|
|---------------------------------------------------------------------|
|---------------------------------------------------------------------|
|---------------------------------------------------------------------|
|-000666000888888-0006660008888888-000555000777777-000333000555555444-|
|---------------------------------------------------------------------|
|
|---------------------------------------------------------------------|
|---------------------------------------------------------------------|
|---------------------------------------------------------------------|
|---------------------------------------------------------------------|
|-000666000888888-0006660008888888-000555000777777-000333000555555444-|
|---------------------------------------------------------------------|

“You - can’t - save her”
|----------------------------------------------------------------------|
|----------------------------------------------------------------------|
|----------------------------------------------------------------------|
|----------------------------------------------------------------------|
|--00000--0000-----00000--0000---0--00000--0000------00000--0000-------|
|--00000--0000-----00000--0000---0--00000--0000------00000--0000-------|
|
|----------------------------------------------------------------------|
|----------------------------------------------------------------------|
|----------------------------------------------------------------------|
|----------------------------------------------------------------------|
|-000666000888888-0006660008888888-0005550007777777-000333000555555444-|
|----------------------------------------------------------------------|


Pre-Verse
|---------------------|---------------------|
|---------------------|---------------------|
|---------------------|---------------------|
|---------------------|---------------------|
|--0----0----0----0---|--00---00---00---00--|
|--0----0----0----0---|--00---00---00---00--|
|
|---------------------|---------------------|
|---------------------|---------------------|
|---------------------|---------------------|
|---------------------|---------------------|
|--0-4p3-3-5p4-3-2h3--|--0-4p3-3-5p4-3-2h3--|
|--0------------------|--0------------------|

“You can’t save her”
|------------------------------------------------|
|------------------------------------------------|
|------------------------------------------------|
|------------------------------------------------|
|--00-8-00-7-00-10-00-8-00-11-00-10-00-8-00-788--|
|------------------------------------------------|

Verse	(2x)
|------------------------|------------------------|
|------------------------|------------------------|
|------------------------|------------------------|
|------------------------|------------------------|
|--0-0--4p3-3-5p4-3-2h3--|--0-0--4p3-3-5p4-3-2h3--|
|--0-0-------------------|--0-0-------------------|

|------------------------------------------------|
|------------------------------------------------|
|------------------------------------------------|
|------------------------------------------------|
|--00-8-00-7-00-10-00-8-00-11-00-10-00-8-00-788--|
|------------------------------------------------|

“62 reasons to remember my face”     4x
|---------------------------------------|
|---------------------------------------|
|---------------------------------------|
|---------------------------------------|
|--0000----00000000----00----00000000---|
|--0000----00000000----00----00000000---|

|------------------------------------|
|------------------------------------|
|------------------------------------|
|------------------------------------|
|--0000----00000000----000-6-5-0-3---|
|--0000----00000000----000-6-5-0-3---|

“This is my idea”                 
|----------------------------------------------|
|----------------------------------------------|
|----------------------------------------------|
|----------------------------------------------|
|-0077700777-0066600666-0033300333-0011100111--|
|----------------------------------------------|

|---------------------------------------------|
|---------------------------------------------|
|---------------------------------------------|
|---------------------------------------------|
|-0077700777-0077700777-0010107788-00556633---|
|---------------------------------------------|
[ Tab from: http://www.guitartabs.cc/tabs/t/through_the_eyes_of_the_dead/two_inches_from_a_main_artery_tab.html ]
“of beauty”
|----------------------|-------------|
|----------------------|-------------|
|----------------------|-------------|
|----------------------|-------------|
|--0----2----5----8----|--0-0---0-0--|
|--0----2----5----8----|--0-0---0-0--|


“Laid to rest beneath a blanket of leaves...”       2x
|-----------------------------------------------------|
|-----------------------------------------------------|
|-----------------------------------------------------|
|-----------------------------------------------------|
|--0-0-0-----------------0-0-0-0-0-0------------------|
|--0-0-0-----------------0-0-0-0-0-0------------------|
|
|-----------------------------------------------------|
|-----------------------------------------------------|
|-----------------------------------------------------|
|-----------------------------------------------------|
|--0-0-0-0-0-0-0-0-0-0-0-0-0-0-0-0-0-0-0-0-0-0-0-0-0--|
|--0-0-0-0-0-0-0-0-0-0-0-0-0-0-0-0-0-0-0-0-0-0-0-0-0--|

“Burning paradise...”				     6x
|----------------------------------------------------|
|----------------------------------------------------|
|----------------------------------------------------|
|----------------------------------------------------|
|--0-0-0--8-7-5-8-7-5--0-0-0-0-0-0--8-7-5-10-8-7-7~--|
|--0-0-0---------------0-0-0-0-0-0-------------------|

Riff intro
|----------------------------|-----------------------------------|
|----------------------------|-----------------------------------|
|---------9\7-7-7\6-6-6\3-3--|-----------------------------------|
|---------x\x-x-x\x-x-x\x-x--|-----------------------------------|
|--0-0-0--7\5-5-5\4-4-4\1-1--|-0-0-0-----------------------------|
|--0-0-0---------------------|-0-0-0-----------------------------|
|
|----------------------------|-----------------------------------|
|----------------------------|-----------------------------------|
|----------------------------|--------8/10-10-10/12-12-12/13-13--|
|----------------------------|--------x/-x--x--x/-x--x--x/-x--x--|
|--0-0-0---------------------|-0-0-0--6/-8--8--8/10-10-10/11-11--|
|--0-0-0---------------------|-0-0-0-----------------------------|

|----------------------------|-------------------------------|
|----------------------------|-------------------------------|
|---------9\7-7-7\6-6-6\3-3--|-------------------------------|
|---------x\x-x-x\x-x-x\x-x--|-------------------------------|
|--0-0-0--7\5-5-5\4-4-4\1-1--|--888888000000777777888101010--|
|--0-0-0---------------------|-------------------------------|
|
|----------------------------|-------------------------------|
|----------------------------|-------------------------------|
|----------------------------|-------------------------------|
|----------------------------|-------------------------------|
|--0-0-0---------------------|--888888000000777777888101010--|
|--0-0-0---------------------|-------------------------------|

“From this burning paradise...”
|----------------------------|-----------------------------------|
|----------------------------|-----------------------------------|
|---------9\7-7-7\6-6-6\3-3--|--------8/10-10-10/12-12-12/13-13--|
|---------x\x-x-x\x-x-x\x-x--|--------x/-x--x--x/-x--x--x/-x--x--|
|--0-0-0--7\5-5-5\4-4-4\1-1--|-0-0-0--6/-8--8--8/10-10-10/11-11--|
|--0-0-0---------------------|-0-0-0-----------------------------|
|
|-----------------------------------|----------------------------|
|-----------------------------------|----------------------------|
|--------8/10-10-10/12-12-12/13-13--|---------9\7-7-7\6-6-6\3-3--|
|--------x/-x--x--x/-x--x--x/-x--x--|---------x\x-x-x\x-x-x\x-x--|
|-0-0-0--6/-8--8--8/10-10-10/11-11--|--0-0-0--7\5-5-5\4-4-4\1-1--|
|-0-0-0-----------------------------|----------------------------|

|------------------------------|----------------------------------|
|------------------------------|----------------------------------|
|----------9\7-7-7\6-6-6\3-3---|----------------------------------|
|----------x\x-x-x\x-x-x\x-x---|----------------------------------|
|---0-0-0--7\5-5-5\4-4-4\1-1---|---888888000000777777888101010----|
|---0-0-0----------------------|----------------------------------|
|
|-----------------------------------|-----------------------------|
|-----------------------------------|-----------------------------|
|--------8/10-10-10/12-12-12/13-13--|-----------------------------|
|--------x/-x--x--x/-x--x--x/-x--x--|-----------------------------|
|-0-0-0--6/-8--8--8/10-10-10/11-11--|-888888000000777777888101010-|
|-0-0-0-----------------------------|-----------------------------|

“This is my idea of beauty”						2x
|-----------------------------------------|-----------------------------|
|-----------------------------------------|-----------------------------|
|-----------------------------------------|-----------------------------|
|-----------------------------------------|-----------------------------|
|-77777-00066666-00099999-00077777-667799-|-77777-00066666-333555333222-|
|-----------------------------------------|-----------------------------|

Bridge (2x)
|------------------------------------------------|
|------------------------------------------------|
|------------------------------------------------|
|------------------------------------------------|
|-------7----6-----------9----7----666667777799--|
|--0000---00---000000000---00---00---------------|

|-------------------------------------------|
|-------------------------------------------|
|-------------------------------------------|
|-------------------------------------------|
|-------7----6-----------33333445554433333--|
|--0000---00---000000000--------------------|

“An indelicate display of lacerations across her body”               2x
|-----------------------------------------|-----------------------------|
|-----------------------------------------|-----------------------------|
|-----------------------------------------|-----------------------------|
|-----------------------------------------|-----------------------------|
|-77777-00066666-00099999-00077777-667799-|-77777-00066666-333555333222-|
|-----------------------------------------|-----------------------------|

Outro Build-up
|--------------------------------------|
|--------------------------------------|
|--------------------------------------|
|--------------------------------------|
|----------------0000-0-0-000---00000--|
|----------------0000-0-0-000---00000--|
|
|--------------------------------------|
|--------------------------------------|
|--------------------------------------|
|--------------------------------------|
|--000-0-0-000---0000-0-0-000---00000--|
|--000-0-0-000---0000-0-0-000---00000--|


Outro Breakdown (SIIIIIICK!!!)  (4x)
|----------------------------------------|
|----------------------------------------|
|----------------------------------------|
|----------------------------------------|
|--000-0-0-000----0000-0-0-000----00000--|
|--000-0-0-000----0000-0-0-000----00000--|

|------------------------------------------|
|------------------------------------------|
|------------------------------------------|
|------------------------------------------|
|--000-0-0-000----0000-0-0-000----000-000--|
|--000-0-0-000----0000-0-0-000----000-000--|