Throne Of Ahaz - Blackthorn Crowns Chords & Tabs

 

Blackthorn Crowns Chords & Tabs

Throne Of Ahaz Chords & Tabs

Version: 1 Type: Tab 0 ratings
1 star 2 stars 3 stars 4 stars 5 stars
comments

Blackthorn Crowns Tab

             Blackthorn crowns by Throne of Ahaz

Taken from the album: On twilight enthroned

Transcripted by. hallanus@hotmail.com

riff1
E----------------------------------------
B----------------------------------------
G----------------------------------------
D----------------------------------------
A-77-777-87-77-77-5-7-77-777-87-777-7-7--
E-00-000-00-00-00-3-5-00-000-00-555-4-5--

riff2
E-------------------------------------------------------------------
B-------------------------------------------------------------------
G-------------------------------------------------------------------
D-------------------------------------------------------------------
A-33-333-333-3-66-33-333-333-3-222-33-333-333-3-66-33-333-3-222222--
E-11-111-111-1-44-11-111-111-1-000-11-111-111-1-44-11-111-1-000000--
[ Tab from: http://www.guitartabs.cc/tabs/t/throne_of_ahaz/blackthorn_crowns_tab.html ]
riff3
E---------------------------
B---------------------------
G---------------------------
D---------------------------
A-22-2-5-2-2-7-2-2-5-2-7-2--
E-00-0-3-0-0-5-0-0-3-0-5-0--

riff4
E----------------------------------------------
B----------------------------------------------
G----------------------------------------------
D-4-5/4-7--9-7-5-4-5/4-7--9-7-5-4-5/4-4--------
A-2-3/2-5--7-5-3-2-3/2-5--7-5-3-2-3/2-2-5-5-5--
E---------------------------------------3-3-3--

riff5
E--------------------------------------------------

B--------------------------------------------------
G--------------------------------------------------
D-------------3-33333-3333-------------------------
A-2-22222-22221-11111-11115-55555-55555-55556-6-6--
E-0-00000-0000------------3-33333-33333-33334-4-4--

the song goes like this:

riff1 6times
riff2 2times
riff1 2times
riff2 2times
riff3 8times
riff4 1time
riff1 2times
riff2 2times
riff5 5times
riff1 4times
riff2 2times
riff3 8times
riff4 1time
the whole song ends on an E

listen to the song to get it right
and if you have the album you also have the lyrics
Comments