Thriving Ivory - Angels On The Moon Chords & Tabs

 

Angels On The Moon Chords & Tabs

Thriving Ivory Chords & Tabs

Version: 1 Type: Tab

Angels On The Moon Tab

I got the acoustic chords from a tab by jrzofclay, but I figured out everything else, 
being the hook (intro), solo rhythm and lead, and the outro.

Capo III

/=slide up
\=slide down
x=muted note
b=bend a half step
-b=hold, then bend
r=release bend
p=pull-off

Intro
--6-8-10-6-6-8-10-6-6-|
-6-6-6--6-6-6-6--6-6--|
----------------------|
----------------------|
----------------------|
----------------------|

Verse
-3-3-3-|
-3-3-3-|
-0-0-0-|
-0-2-2-|
-2-2-3-|
-3-0---|

Chorus
-3-2-2-3-|
-3-3-3-3-|
-0-2-4-0-|
-0-0-4-2-|
-2-0-2-3-|
-3-------|
[ Tab from: http://www.guitartabs.cc/tabs/t/thriving_ivory/angels_on_the_moon_tab.html ]
Bridge
---------------------------------------------|
---------------------------------------------|
-10-12\-x-x-x-12-br-10-12\-x-x-x-13-12-13-12-|
-10-12\-x-x-x-x-----10-12\-x-x-x-13-12-13-12-|
--8-10\-x-x-x-10-br--8-10\-x-x-x-11-10-11-10-|
---------------------------------------------|

Solo
---6-6-6-6------10--10--10--10--10brp8-|
-/6-6-6-6-6-6/11--11--11--11--11-------|
---------------------------------------|
---------------------------------------|
---------------------------------------|
---------------------------------------|

-13-13-13-13-13-13-13-15p13--13-|
---------------------------14---|
--------------------------------|
--------------------------------|
--------------------------------|
--------------------------------|


11-13-11-13-10-13-11-13-10-11-10-|
---------------------------------|
---------------------------------|
---------------------------------|
---------------------------------|
---------------------------------|

Outro
-3-3-|
-3-3-|
-0-0-|
-2-2-|
-2-3-|
-0---|