Thrice - Under A Killing Moon Chords & Tabs

 

Under A Killing Moon Chords & Tabs

Thrice Chords & Tabs

Version: 1 Type: Bass Tab 0 ratings
1 star 2 stars 3 stars 4 stars 5 stars
comments

Under A Killing Moon Bass Tab

   
Intro
F|---------------------|
C|---------------------|
G|--------------111-33-|
C|-0~-----0~-----------| x2

Verse
F|-----------------------------------|
C|-------------7---------------------|
G|---------------8-7h8-------111-33--|
C|-15---0000-----------0000----------| x2

pre chrous
F|-------------|
C|-------------|
G|-------------|
C|-88888888888-

F|-----------------------------|
C|-------------0-5h7p5-0-3h5p3-|
G|-----------------------------|
C|-00-11-000-0-----------------| x2

F|-------------|
C|-------------|
G|-------------|
C|-88888888888-
[ Tab from: http://www.guitartabs.cc/tabs/t/thrice/under_a_killing_moon_btab.html ]
chrous
F|----------------------------------------|
C|----------------------------------------|
G|----------------------------------------|
C|-000-0-0-0-10h12-10101010-10h12-8888888-| x2

F|-------|
C|-7-8-7-|
G|-5-6-5-|
C|-0-0-0-|

then verse x2,

chrous
F|----------------------------------------|
C|----------------------------------------|
G|----------------------------------------|
C|-000-0-0-0-10h12-10101010-10h12-8888888-| x4

F|-------|
C|-------|
G|-------|
C|-0-1-0-| x2


F|-----------------------------|
C|-------------0-5h7p5-0-3h5p3-|
G|-----------------------------|
C|-00-11-000-0-----------------| play till end.

last bit
F|-------|
C|-7-8-7-|
G|-5-6-5-|
C|-0-0-0-|
Comments