Thrice - Ultra Blue Chords & Tabs

 

Ultra Blue Chords & Tabs

Thrice Chords & Tabs

Version: 2 Type: Tab 0 ratings
1 star 2 stars 3 stars 4 stars 5 stars
comments

Ultra Blue Tab

Thrice- Ultra Blue
e-mail me at el_canguro_atractivo@hotmail.com for corrections


key:
*   - finger mute
$   - play note 7 more times
$$  - Play note 15 more times
#   - Play note 3 more times
|x| - Repeat block of notes inside | | x amount of times

intro: part 1
Guitar 1:
E  -----------------------------------------------------|
B  -----------------------------------------------------|
G  -4-4------------------------2-2----------------------|
D  -4-4------------------------2-2----------------------|
A  -2-2------------------------0-0----------------------|
E  -----------------------------------------------------|


Guitar 2:
E  -----------------------------------------------------|
B  -----------------------------------------------------|
G  -----------------6-7-6----------------------6-7-6----|
D  --9-9-9-7-9-0-7-9------9-7--9-9-9-7-9-0-7-9------9-7-|
A  -----------------------------------------------------|
E  -----------------------------------------------------|
____________________________________________________________________
intro: part 2

Guitar 1:
E  -----------------------------------------------------|
B  -----------------------------------------------------|
G  -4-4------------------------2-2-2--------------------|
D  -4-4------------------------2-2-2--------------------|
A  -2-2------------------------0-0-0--------------------|
E  -----------------------------------------------------|


Guitar 2:
E  -----------------------------------------------------|
B  -----------------------------------------------------|
G  -----------------6-7-6----------------------6-7-6----|
D  --9-9-9-7-9---7-9------9-7--9-9-9-7-9---7-9------9-7-|
A  ------------0-------------------------0--------------|
E  -----------------------------------------------------|
______________________________________________________________________
intro: part 3

Guitar 1:                           ___Let note ring___
E  -----------------------------------------------------|
B  -----------------------------------------------------|
G  -4-4------------------------2-2-2--------------------|
D  -4-4------------------------2-2-2--------------------|
A  -2-2------------------------0-0-0--------------------|
E  -----------------------------------------------------|


Guitar 2:
E  -----------------------------------------------------|
B  -----------------------------------------------------|
G  -----------------6-7-6----------------------6-7-6----|
D  --9-9-9-7-9---7-9------9-7--9-9-9-7-9---7-9------9-7-|
A  ------------0-------------------------0--------------|
E  -----------------------------------------------------|
_____________________________________________________________________
intro: part 4

Guitar 1:
E  -----------------------------------------------------|
B  -----------------------------------------------------|
G  -4--------------------------2------------------------|
D  -4--------------------------2------------------------|
A  -2--------------------------0------------------------|
E  -----------------------------------------------------|


Guitar 2:
E  -----------------------------------------------------|
B  -----------------6-7-6----------------------6-7-6----|
G  --9-9-9-7-9-9-7-9------9-7--9-9-9-7-9-9-7-9------9-7-|
D  -----------------------------------------------------|
A  -----------------------------------------------------|
E  -----------------------------------------------------|
_____________________________________________________________________
intro: part 5

Guitar 1:
E  -----------------------------------------------------|
B  -----------------------------------------------------|
G  -4--------------------------2------------------------|
D  -4--------------------------2------------------------|
A  -2--------------------------0------------------------|
E  -----------------------------------------------------|

[ Tab from: http://www.guitartabs.cc/tabs/t/thrice/ultra_blue_tab_ver_2.html ]
Guitar 2:
E  -----------------------------------------------------|
B  -----------------6-7-6----------------------6-7-6----|
G  --9-9-9-7-9-9-7-9------9-7--9-9-9-7-9-9-7-9------9-7-|
D  -----------------------------------------------------|
A  -----------------------------------------------------|
E  -----------------------------------------------------|
_____________________________________________________________________
verse:

Guitar 2: play x2
E  -----------------------------------------------------|
B  -----------------6-7-6----------------------6-7-6----|
G  --9-9-9-7-9-9-7-9------9-7--9-9-9-7-9-9-7-9------9-7-|
D  -----------------------------------------------------|
A  -----------------------------------------------------|
E  -----------------------------------------------------|
     * * * * * * *             * * * * * * * *
_____________________________________________________________________
chorus:

Guitars 1 and 2:                | 4|  | 4|
E  -----------------------------------------------------|
B  -----------------------------------------------------|
G  -4$-7$-2$$----4$-7$-6$----2#-2-22--4-44--------------|
D  -4$-7$-2$$----4$-7$-6$----2#-2-22--4-44--------------|
A  -2$-5$-0$$----2$-5$-4$----0#-0-00--2-22--------------|
E  -----------------------------------------------------|
   |    2   |                *    **    **
______________________________________________________________________

REPEAT: verse
______________________________________________________________________
REPEAT: chorus
______________________________________________________________________
Bridge: part 1

Guitar 1:      *guitar 1 pickslide* *guitar 2 pickslide*
E  -----------------------------------------------------|
B  -------11--------------------------------------------|
G  ----12----12-----------------------------------------|
D  -----------------------------------------------------|
A  -2---------------------------------------------------|
E  -----------------------------------------------------|
______________________________________________________________________
Bridge: part 2

Guitar 2:
E  -----------------------------------------------------|
B  -----------------------------------------------------|
G  -----------------------------------------------------|
D  -----------2-----------------------------------------|
A  -2---2-4-5---5-4-4--2-4-2-4--------------------------|
E  -----------------------------------------------------|
    |       2                |
______________________________________________________________________
Bridge: part 3
Guitar 1:      *guitar 1 pickslide* *guitar 2 pickslide*
E  -----------------------------------------------------|
B  -----------------------------------------------------|
G  -----------------------------------------------------|
D  -------------9---------------------------------------|
A  -9---9-11-12---12-11-11------------------------------|
E  -----------------------------------------------------|
(Guitar 1 and Guitar 2 play notes at same time, do not count
ones from guitar 2 that are at fret 0)
(play twice)

Guitar 2:
E  -----------------------------------------------------|
B  -----------------------------------------------------|
G  -----------------------------------------------------|
D  ------------2----------------------------------------|
A  -2-0$-2-4-5---5-4-4-0$-2-4-2-4-----------------------|
E  -----------------------------------------------------|
    * *  * * * * * * * *  * * * *
______________________________________________________________________
end:

Guitars 1 and 2:
E  -----------------------------------------------------|
B  -----------------------------------------------------|
G  -4---2--------4-----2--------------------------------|
D  -4---2--------4-----2--------------------------------|
A  -2---0--------2-----0--------------------------------|
E  -----------------------------------------------------|
    Revolution.. Ultra blue..
(play each power chord as 8th notes until next power chord
appears)
______________________________________________________________________
Comments