Thrice - Trust Chords & Tabs

 

Trust Chords & Tabs

Thrice Chords & Tabs

Version: 1 Type: Tab 0 ratings
1 star 2 stars 3 stars 4 stars 5 stars
comments

Trust Tab

   
-------------------------------------------------------------------------------
                          TRUST - Thrice
-------------------------------------------------------------------------------

By:  whocares777

DROP C# TUNING

/ \ - slide
>   - strum for a long time
~   - let ring out


GUITAR 1'S PARTS:
-----------------
Intro:  (slight palm mute)  (2x)
e|---------------------------------------------------------------------------|
B|---------------------------------------------------------------------------|
G|----7-6-------7-6-9-----7-6-------7-6---9-7-9/11-9-7-----------------------|
D|7/9-----7-9-9-------7-9-----7-9-9-----9--------------5>--------------------|
A|-----------------------------------------------------5>--------------------|
E|-----------------------------------------------------5>--------------------|

Verse:  (4x)
e|2-----2-----0-----0-----5-----5-----2-----0--------------------------------|
B|--3-----3-----3-----3-----3-----3-----3-----3------------------------------|
G|----4-----4-----4-----4-----4-----4-----4-----4----------------------------|
D|---------------------------------------------------------------------------|
A|---------------------------------------------------------------------------|
E|---------------------------------------------------------------------------|

Next Part:  "Save my life..."  (2x)
e|---------------------------------------------------------------------------|
B|---------------------------------------------------------------------------|
G|------------11-11-------------11-11-11-------------------------------------|
D|9-9-9-9-9-9--x--x-9-9-9-9-9-9--x--x--x-------------------------------------|
A|9-9-9-9-9-9--9--9-9-9-9-9-9-9--9--9--9-------------------------------------|
E|9-9-9-9-9-9-------9-9-9-9-9-9----------------------------------------------|

Next Part Cont'd:
e|---------------------------------------------------------------------------|
B|---------------------------------------------------------------------------|
G|---------------------------------------------------------------------------|
D|9-9-9-9-9-9-7-7-7-7-7-7-5-5-5-5-5-5-7-7-7-7-7-7----------------------------|
A|5-5-5-5-5-5-5-5-5-5-5-5-5-5-5-5-5-5-5-5-5-5-5-5----------------------------|
E|5-5-5-5-5-5-5-5-5-5-5-5-5-5-5-5-5-5-5-5-5-5-5-5----------------------------|

Repeat Verse

Chorus:
e|5-5-5-5-5-5----------------------------------------------------------------|
B|7-7-7-7-7-7-8-8-8-8-8-8-5-5-5-5-5-5-7-7-7-5-5-5-7-7-7-7-7-7-5-5-5-5-5-5----|
G|7-7-7-7-7-7-7-7-7-7-7-7-7-7-7-7-7-7-7-7-7-7-7-7-7-7-7-7-7-7-7-7-7-7-7-7----|
D|---------------------------------------------------------------------------|
A|---------------------------------------------------------------------------|
E|---------------------------------------------------------------------------|

Chorus Cont'd:
e|5-5-5-5-5-5----------------------------------------------------------------|
B|7-7-7-7-7-7-7-7-7-5-5-5-10-10-10-10-10-10-7-7-7-7-7-7-5-5-5-5-5-5-7-7-7-5-5|
G|7-7-7-7-7-7-7-7-7-7-7-7--7--7--7--7--7--7-7-7-7-7-7-7-7-7-7-7-7-7-7-7-7-7-7|
D|---------------------------------------------------------------------------|
A|---------------------------------------------------------------------------|
E|---------------------------------------------------------------------------|

Chorus Cont'd:
e|---------------------------------------------------------------------------|
B|5-7-7-7-7-7-7-5-5-5-5-5-5-10-10-10-10-10-10-7-7-7-5-5-5--------------------|
G|7-7-7-7-7-7-7-7-7-7-7-7-7--7--7--7--7--7--7-7-7-7-7-7-7--------------------|
D|---------------------------------------------------------------------------|
A|---------------------------------------------------------------------------|
E|---------------------------------------------------------------------------|

Last Part:
e|---------------------------------------------------------------------------|
B|---------------------------------------------------------------------------|
G|------11-11-11-------9-9-9-------7-7-7-------6-6-6-------18-18-18----------|
D|5-5-5--x--x--x-5-5-5-x-x-x-5-5-5-x-x-x-5-5-5-x-x-x-9-9-9--x--x--x-9-9-9----|
A|5-5-5--9--9--9-5-5-5-7-7-7-5-5-5-5-5-5-5-5-5-4-4-4-9-9-9-16-16-16-9-9-9----|
E|5-5-5----------5-5-5-------5-5-5-------5-5-5-------9-9-9----------9-9-9----|

Last Part Cont'd:
e|---------------------------------------------------------------------------|
B|---------------------------------------------------------------------------|
G|16-16-16-------14-14-14-------12-14-14-------18-18-18-------16-16-16-------|
D|-x--x--x-9-9-9--x--x--x-9-9-9--x--x--x-5-5-5--x--x--x-5-5-5--x--x--x-------|
A|14-14-14-9-9-9-12-12-12-9-9-9-10-12-12-5-5-5-16-16-16-5-5-5-14-14-14-------|
E|---------9-9-9----------9-9-9----------5-5-5----------5-5-5----------------|

Last Part Cont'd:
e|---------------------------------------------------------------------------|
B|---------------------------------------------------------------------------|
G|------14-14-14-------12-12-12-11~------------------------------------------|
D|7-7-7--x--x--x-7-7-7--x--x--x--x-------------------------------------------|
A|7-7-7-12-12-12-7-7-7-10-10-10--9~------------------------------------------|
E|7-7-7----------7-7-7-------------------------------------------------------|
[ Tab from: http://www.guitartabs.cc/tabs/t/thrice/trust_tab.html ]
GUITAR 2'S PARTS:
-----------------
Intro:  (Slight palm mute)
e|---------------------------------------------------------------------------|
B|----------------------------------------14-14-14-14-14-14-12-12-12-12-12-12|
G|6-6-7-9-9-6-6-7-9-9-6-6-7-9-9-6-6-7-9-9-12-12-12-12-12-12-12-12-12-12-12-12|
D|9-9-9-9-9-9-9-9-9-9-9-9-9-9-9-9-9-9-9-9-12-12-12-12-12-12-12-12-12-12-12-12|
A|---------------------------------------------------------------------------|
E|---------------------------------------------------------------------------|

Intro Cont'd:
e|---------------------------------------------------------------------------|
B|14-14-14-14-14-14-12-12-12-12-12-12----------------------------------------|
G|12-12-12-12-12-12-12-12-12-12-12-12-6-6-7-9-9-6-6-7-9-9-6-6-7-9-9-6-6-7-9-9|
D|12-12-12-12-12-12-12-12-12-12-12-12-9-9-9-9-9-9-9-9-9-9-9-9-9-9-9-9-9-9-9-9|
A|---------------------------------------------------------------------------|
E|---------------------------------------------------------------------------|

Intro Cont'd:
e|---------------------------------------------------------------------------|
B|14-14-14-14-14-14-12-12-12-12-12-12-14-14-14-14-14-14-12-12-12-12-12-12----|
G|12-12-12-12-12-12-12-12-12-12-12-12-12-12-12-12-12-12-12-12-12-12-12-12----|
D|12-12-12-12-12-12-12-12-12-12-12-12-12-12-12-12-12-12-12-12-12-12-12-12----|
A|---------------------------------------------------------------------------|
E|---------------------------------------------------------------------------|

Intro Cont'd:
e|---------------------------------------------------------------------------|
B|14-14-14-14-14-14-15-15-15-15-15-15-15-15-15-15-15-15-15-14-12-15-15-15-14~|
G|12-12-12-12-12-12-12-12-12-12-12-12-12-12-12-12-12-12-12-12-12-12-12-12----|
D|12-12-12-12-12-12-12-12-12-12-12-12-12-12-12-12-12-12-12-12-12-12-12-12----|
A|---------------------------------------------------------------------------|
E|---------------------------------------------------------------------------|

Verse:  (2x)
e|---------------------------------------------------------------------------|
B|3-----3-----2-----2-----3-----3-----2-----2-----3-----3-----2-----2--------|
G|--4-----4-----4-----4-----4-----4-----4-----4-----4-----4-----4-----4------|
D|----4-----4-----4-----4-----4-----4-----4-----4-----0-----0-----0-----0----|
A|---------------------------------------------------------------------------|
E|---------------------------------------------------------------------------|

Verse Cont'd:
e|---------------------------------------------------------------------------|
B|3-----3-----2-----2--------------------------------------------------------|
G|--4-----4-----4-----4------------------------------------------------------|
D|----0-----0-----0-----0----------------------------------------------------|
A|---------------------------------------------------------------------------|
E|---------------------------------------------------------------------------|

Next Part:  "Save my life..."  (2x)
e|---------------------------------------------------------------------------|
B|---------------------------------------------------------------------------|
G|------------11-11-------------11-11-11-------------------------------------|
D|9-9-9-9-9-9--9--9-9-9-9-9-9-9--9--9--9-------------------------------------|
A|9-9-9-9-9-9--9--9-9-9-9-9-9-9--9--9--9-------------------------------------|
E|9-9-9-9-9-9--9--9-9-9-9-9-9-9--9--9--9-------------------------------------|

Next Part Cont'd:
e|---------------------------------------------------------------------------|
B|---------------------------------------------------------------------------|
G|---------------------------------------------------------------------------|
D|9-9-9-9-9-9-7-7-7-7-7-7-5-5-5-5-5-5-7-7-7-7-7-7----------------------------|
A|5-5-5-5-5-5-5-5-5-5-5-5-5-5-5-5-5-5-5-5-5-5-5-5----------------------------|
E|5-5-5-5-5-5-5-5-5-5-5-5-5-5-5-5-5-5-5-5-5-5-5-5----------------------------|

Repeat Verse

Chorus:  (You figure out strumming)
e|---------------------------------------------------------------------------|
B|---------------------------------------------------------------------------|
G|---------------------------------7-------7---------------------------------|
D|0---11---12---11---12---11---5---5---5---5---12---11---12---11-------------|
A|0----0----9----9----9----9---5---5---5---5----9----9----9----9-------------|
E|0----0----9----9----9----9---5---5---5---5----9----9----9----9-------------|

Last Part:
e|---------------------------------------------------------------------------|
B|---------------------------------------------------------------------------|
G|------14-14-14-------12-12-12-------11-11-11-------9-9-9-------14-14-14----|
D|5-5-5--x--x--x-5-5-5--x--x--x-5-5-5--x--x--x-5-5-5-x-x-x-9-9-9--x--x--x----|
A|5-5-5-12-12-12-5-5-5-10-10-10-5-5-5--9--9--9-5-5-5-7-7-7-9-9-9-12-12-12----|
E|5-5-5----------5-5-5----------5-5-5----------5-5-5-------9-9-9-------------|

Last Part Cont'd:
e|---------------------------------------------------------------------------|
B|---------------------------------------------------------------------------|
G|------12-12-12-------11-11-11-------9-11-11-------14-14-14-------12-12-12--|
D|9-9-9--x--x--x-9-9-9--x--x--x-9-9-9-x--x--x-5-5-5--x--x--x-5-5-5--x--x--x--|
A|9-9-9-10-10-10-9-9-9--9--9--9-9-9-9-7--9--9-5-5-5-12-12-12-5-5-5-10-10-10--|
E|9-9-9----------9-9-9----------9-9-9---------5-5-5----------5-5-5-----------|

Last Part Cont'd:
e|---------------------------------------------------------------------------|
B|---------------------------------------------------------------------------|
G|------11-11-11-------9-9-9-7~----------------------------------------------|
D|7-7-7--x--x--x-7-7-7-x-x-x-x-----------------------------------------------|
A|7-7-7--9--9--9-7-7-7-7-7-7-5~----------------------------------------------|
E|7-7-7----------7-7-7-------------------------------------------------------|


===============================================================================
Comments