Thrice - Trust Acoustic Chords & Tabs

 

Trust Acoustic Chords & Tabs

Thrice Chords & Tabs

Version: 1 Type: Chords 0 ratings
1 star 2 stars 3 stars 4 stars 5 stars
comments

Trust Acoustic Chords

   
Thrice- Trust (Acoustic)
Standard Tuning, Capo 1st Fret
Time: 3/4
^=downstroke  v=upstroke
Easy song... good song... enjoy!

  Am                      Aadd9       Am 
  ^ ^ v ^ v (continue this rhytm for every chord)
e-0-0-0-0-0-|-0-0-0-0-0-|-0-0-0-0-0-|-0-0-0-0-0-|
B-1-1-1-1-1-|-1-1-1-1-1-|-0-0-0-0-0-|-1-1-1-1-1-|
G-2-2-2-2-2-|-2-2-2-2-2-|-2-2-2-2-2-|-2-2-2-2-2-|
D-2-2-2-2-2-|-2-2-2-2-2-|-2-2-2-2-2-|-2-2-2-2-2-|
A-0-0-0-0-0-|-0-0-0-0-0-|-0-0-0-0-0-|-0-0-0-0-0-|
E-----------|-----------|-----------|-----------|

  F                       F#11        F
e-1-1-1-1-1-|-1-1-1-1-1-|-0-0-0-0-0-|-1-1-1-1-1-|
B-1-1-1-1-1-|-1-1-1-1-1-|-0-0-0-0-0-|-1-1-1-1-1-|
G-2-2-2-2-2-|-2-2-2-2-2-|-2-2-2-2-2-|-2-2-2-2-2-|
D-3-3-3-3-3-|-3-3-3-3-3-|-3-3-3-3-3-|-3-3-3-3-3-|
A-----------|-----------|-----------|-----------|
E-----------|-----------|-----------|-----------|
[ Tab from: http://www.guitartabs.cc/tabs/t/thrice/trust_acoustic_crd.html ]
(NOTE: You can lift your index finger from the Am and F chords like in the intro
as needed throughout)
Am
mix the chemicals right dear, mix the chemicals right
F
yeah the margin of error is slight
Am
mix the chemicals right dear, mix the chemicals right
F                                     Am      F
yeah you know that you could save my life
                   Am
you could snap my neck

(Same as first chorus except play a G chord after 'mean')
mix the chemicals right dear, mix the chemicals right
yeah you know there's a fine line between
mix the chemicals right dear, mix the chemicals right
cause i know what betrayal can mean G

For the last part play this: 
C         Am         F   
                         ---> play all of those chords for 4 measures each  
Am        F          Am 

F         G           C  ---> play F and G for two measures and C for one     

when this frame fails me
will i trust you to carry me through?
i know there's no such thing as safety
but i know what a promise can do.
will i trust you, will i trust you to carry me through?
i will trust you, cause i know what a promise can do
Comments