Thrice - Torch To End All Torches Chords & Tabs

 

Torch To End All Torches Chords & Tabs

Thrice Chords & Tabs

Version: 2 Type: Tab 0 ratings
1 star 2 stars 3 stars 4 stars 5 stars
comments

Torch To End All Torches Tab

   
Thrice - Torch To End All Torches

AIM: guitar2518
E-Mail: dupsidolittle@hotmail.com

Play 8x
E|-----------------------------------|
B|-----------------------------------|
G|-----------------------------------|
D|-----------------------------------|
A|-----------------------------------|
E|-0-000-0-000-000-0-000-0-6-6-5-3-5-|

Play 1x
E|-------------------|
B|-------------------|
G|-------------------|
D|-------------------|
A|-------------------|
E|-000-000-000-000-0-|

Play 3x
E|-----------------------------------|
B|-----------------------------------|
G|-----------------------------------|
D|-----------------------------------|
A|-----------------------------------|
E|-0-000-0-000-000-0-000-0-6-6-5-3-5-|

Play 1x
E|-------------------------------|
B|-------------------------------|
G|-------------------------------|
D|-------------------------------|
A|-------------------------------|
E|-6-5-3--6-5-3--6-5-3--6-5-3--1-|

Play 2x
E|--------------------------------------------|
B|--------------------------------------------|
G|--------------------------------------------|
D|-------------------------5--5-5-x-x--4--444-|
A|-2--2-2-x-x--5--5-5-x-x--3--3-3-x-x--2--222-|
E|-0--0-0-x-x--3--3-3-x-x---------------------|

Play 1x
E|----------------------------------------------------------------|
B|----------------------------------------------------------------|
G|----------------------------------------------------------------|
D|---------5-4----------------4------------5-4----------------4---|
A|-7-777-7-----7--5-555-5-5-7---5--7-777-7-----7--6-666-6-6-7---6-|
E|----------------------------------------------------------------|
  
E|---------------------------------------------------------------------|
B|---------------------------------------------------------------------|
G|---------------------------------------------------------------------|
D|---------5-4----------------4------------4h5p4-----------------------|
A|-7-777-7-----7--5-555-5-5-7---5--5h7-5h7-------7-222-0-2h3p2p0-------|
E|---------------------------------------------------------------3p2p0-|

Play 3x
E|-----------------------------------|
B|-----------------------------------|
G|-----------------------------------|
D|-----------------------------------|
A|-----------------------------------|
E|-0-000-0-000-000-0-000-0-6-6-5-3-5-|

Play 1x
E|---------------------15-divebomb-w/-whammy-bar-|
B|---------------------15-divebomb-w/-whammy-bar-|
G|-4h5p4p2-4p2p0---------------------------------|
D|---------------4p2p0---------------------------|
A|-----------------------------------------------|
E|-----------------------------------------------|

Play 3x
E|-----------------------------------|
B|-----------------------------------|
G|-----------------------------------|
D|-----------------------------------|
A|-----------------------------------|
E|-0-000-0-000-000-0-000-0-6-6-5-3-5-|

Play 1x
E|-------------------------------|
B|-------------------------------|
G|-------------------------------|
D|-------------------------------|
A|-------------------------------|
E|-6-5-3--6-5-3--6-5-3--6-5-3--1-|

Play 2x
E|--------------------------------------------|
B|--------------------------------------------|
G|--------------------------------------------|
D|-------------------------5--5-5-x-x--4--444-|
A|-2--2-2-x-x--5--5-5-x-x--3--3-3-x-x--2--222-|
E|-0--0-0-x-x--3--3-3-x-x---------------------|

Play 1x
E|----------------------------------------------------------------|
B|----------------------------------------------------------------|
G|----------------------------------------------------------------|
D|---------5-4----------------4------------5-4----------------4---|
A|-7-777-7-----7--5-555-5-5-7---5--7-777-7-----7--6-666-6-6-7---6-|
E|----------------------------------------------------------------|
  
E|---------------------------------------------------------------------|
B|---------------------------------------------------------------------|
G|---------------------------------------------------------------------|
D|---------5-4----------------4------------4h5p4-----------------------|
A|-7-777-7-----7--5-555-5-5-7---5--5h7-5h7-------7-222-0-2h3p2p0-------|
E|---------------------------------------------------------------3p2p0-|

End on this chord
E|-0-|
B|-0-|
G|-0-|
D|-2-|
A|-2-|
E|-0-|

Play 3x
On this 3x listen for the rhythm 
[ Tab from: http://www.guitartabs.cc/tabs/t/thrice/torch_to_end_all_torches_tab_ver_2.html ]
E|--------------|
B|-10----0------|
G|-11---11---10-|
D|------11---11-|
A|--------------|
E|--------------|

Play 2x
E|-------------------------------------------------------------------|
B|-------------------------------------------------------------------|
G|-14-14-14-14-13-13-13-13-13-13-13-11-11-11-11-13-13-13-13-13-13-13-|
D|--x--x--x--x--x--x--x--x--x--x--x--x--x--x--x--x--x--x--x--x--x--x-|
A|-12-12-12-12-11-11-11-11-11-11-11--9--9--9--9-11-11-11-11-11-11-11-|
E|-------------------------------------------------------------------|

E|-------------------------------------------------------------------|
B|-------------------------------------------------------------------|
G|-14-14-14-14-13-13-13-13-13-13-13-11-11-11-11-13-13-13-13-13-13-13-|
D|--x--x--x--x--x--x--x--x--x--x--x--x--x--x--x--x--x--x--x--x--x--x-|
A|-12-12-12-12-11-11-11-11-11-11-11--9--9--9--9-11-11-11-11-11-11-11-|
E|-------------------------------------------------------------------|

E|-------------------------------------------------------------------|
B|-------------------------------------------------------------------|
G|-16-16-16-16-18-18-18-18-18-18-18-14-14-14-14-16-16-16-16-16-16-16-|
D|--x--x--x--x--x--x--x--x--x--x--x--x--x--x--x--x--x--x--x--x--x--x-|
A|-14-14-14-14-16-16-16-16-16-16-16-12-12-12-12-14-14-14-14-14-14-14-|
E|-------------------------------------------------------------------|

E|-------------------------------------------------------------------|
B|-------------------------------------------------------------------|
G|-9-9-9-9-11-11-11-11-11-11-11-9-9-9-9-11-11-11-11-11-11-11---------|
D|-x-x-x-x--x--x--x--x--x--x--x-x-x-x-x--x--x--x--x--x--x--x---------|
A|-7-7-7-7--9--9--9--9--9--9--9-7-7-7-7--9--9--9--9--9--9--9---------|
E|-------------------------------------------------------------------|

Play 1x
E|---------------------------------------------------------|
B|---------------------------------------------------------|
G|-11--------------9-x-9-x-x-9-11--------------7-x-x-9-x-9-|
D|--x--------------x-x-x-x-x-x--x--------------x-x-x-x-x-x-|
A|--9-9-9-12-11-9--7-x-7-x-x-7--9-9-9-12-11-9--5-x-x-7-x-7-|
E|---------------------------------------------------------|

E|-------------------------------------------------------------------|
B|-------------------------------------------------------------------|
G|----------------------------------7-7-x-x-7-7-x--------------------|
D|-4-4-x-x-4-4-x-7-7-x-7-7-x-x-7-7--7-7-x-x-7-7-x--6-6-x-x-6-6-6h7p6-|
A|-4-4-x-x-4-4-x-7-7-x-7-7-x-x-7-7--5-5-x-x-5-5-x--7-7-x-x-7-7-------|
E|-2-2-x-x-2-2-x-5-5-x-5-5-x-x-5-5-----------------------------------|

Play 1x
E|---------------------------------------------------------|
B|---------------------------------------------------------|
G|-11--------------9-x-9-x-x-9-11--------------7-x-x-9-x-9-|
D|--x--------------x-x-x-x-x-x--x--------------x-x-x-x-x-x-|
A|--9-9-9-12-11-9--7-x-7-x-x-7--9-9-9-12-11-9--5-x-x-7-x-7-|
E|---------------------------------------------------------|

E|----------------------------------------------------------------------|
B|----------------------------------------------------------------------|
G|----------------------------------7-7-x-x-7-7-x-6-6-x-x-6-6-9-9-9-9---|
D|-4-4-x-x-4-4-x-7-7-x-7-7-x-x-7-7--7-7-x-x-7-7-x-6-6-x-x-6-6-9-9-9-9-4-|
A|-4-4-x-x-4-4-x-7-7-x-7-7-x-x-7-7--5-5-x-x-5-5-x-4-4-x-x-4-4-7-7-7-7-4-|
E|-2-2-x-x-2-2-x-5-5-x-5-5-x-x-5-5------------------------------------2-|

Play 6x
E|-------------------|
B|-------------------|
G|---6-4h6---4-------|
D|-4-------7---7-6-7-|
A|-------------------|
E|-------------------|

Play 2x
E|-------------------------|
B|-------------------------|
G|-------------------------|
D|-4-4-x-x-x-4-4-4-x-x-x-x-|
A|-4-4-x-x-x-4-4-4-x-x-x-x-|
E|-2-2-x-x-x-2-2-2-x-x-x-x-|

Play 6x
E|-------------------|
B|-------------------|
G|---6-4h6---4-------|
D|-4-------7---7-6-7-|
A|-------------------|
E|-------------------|

Play 2x
E|-------------------------|
B|-------------------------|
G|-------------------------|
D|-4-4-x-x-x-4-4-4-x-x-x-x-|
A|-4-4-x-x-x-4-4-4-x-x-x-x-|
E|-2-2-x-x-x-2-2-2-x-x-x-x-|

Play 3x
Once again...
On this 3x listen for the rhythm 

E|------------------|
B|------------------|
G|-6-7-9-11-9-11-13-|
D|-x-x-x--x-x--x--x-|
A|-4-5-7--9-7--9-11-|
E|------------------|

Play 4x
E|-------------------|
B|-------------------|
G|---6-4h6---4-------|
D|-4-------7---7-6-7-|
A|-------------------|
E|-------------------|

Play 1x
E|---------------|
B|---------------|
G|---------------|
D|-4-x-x-x-x-x-4-|
A|-4-x-x-x-x-x-4-|
E|-2-x-x-x-x-x-2-|
Comments