Thrice - Torch To End All Torches Chords & Tabs

 

Torch To End All Torches Chords & Tabs

Thrice Chords & Tabs

Version: 1 Type: Tab 0 ratings
1 star 2 stars 3 stars 4 stars 5 stars
comments

Torch To End All Torches Tab

----------------------------------------------------------------------------
			     Torch To End All Torches - Thrice
----------------------------------------------------------------------------
Tabbed by: moggs
Email: moggs182@hotmail.com

Tuning: standard

^=bend
/=slide

listen to song for rhythm
e|-------------------------------------------------------------------------|
B|-------------------------------------------------------------------------|
G|-------------------------------------------------------------------------|
D|-------------------------------------------------------------------------|
A|-22-2-222-2-222-2-222-------------22-2-222-2-222-2-222-------------------|
E|-00-0-000-0-000-0-000--6-6-5-3-5--00-0-000-0-000-0-000--6-6-5-3-5--------|

e|-------------------------------------------------------------------------|
B|-------------------------------------------------------------------------|
G|-------------------------------------------------------------------------|
D|-----------5-5--4-4-----------5-5--4-4-----------------------------------|
A|-2-2--5-5--3-3--2-2-2-2--5-5--3-3--2-2-----------------------------------|
E|-0-0--3-3-----------0-0--3-3---------------------------------------------|
 "long ago i was derailed.."


e|-------------------------------------------------------------------------|
B|-------------------------------------------------------------------------|
G|-------------------------------------------------------------------------|
D|-------------------------------------------------------------------------|
A|-22-2-222-2-222-2-222-------------22-2-222-2-222-2-222-------------------|
E|-00-0-000-0-000-0-000--6-6-5-3-5--00-0-000-0-000-0-000--6-6-5-3-5--------|

e|-------------------------------------------------------------------------|
B|-------------------------------------------------------------------------|
G|----------------------------------5-4-2----------------------------------|
D|----------------------------------------5-4-2---4^-----------------------|
A|-22-2-222-2-222-2-222-2----------2------------5--------------------------|
E|-00-0-000-0-000-0-000-0--6-5-3-5-0---------------------------------------|

[ Tab from: http://www.guitartabs.cc/tabs/t/thrice/torch_to_end_all_torches_tab.html ]
slow part: (rhythm is not tabbed out) play 3x
e|--9----9----9--------------------------------------------------|
B|-10----9----9--------------------------------------------------|
G|-11---11---10--------------------------------------------------|
D|--0----9----9--------------------------------------------------|
A|---------------------------------------------------------------|
E|---------------------------------------------------------------|

e|-------------------------------------------------------------------------|
B|-------------------------------------------------------------------------|
G|-14-13-11--13-14-13-13--13--16-18-18/14-14/16--9-11-9-11-----------------|
D|-------------------------------------------------------------------------|
A|-12-11--9--11-12-11--9--11--14-16-16/12-12/14--7--9-7--9-----------------|
E|-------------------------------------------------------------------------|

e|-------------------------------------------------------------------------|
B|-------------------------------------------------------------------------|
G|-14-13-11--13-14-13-13--13--16-18-18/14-14/16--9-11-9-11-----------------|
D|-------------------------------------------------------------------------|
A|-12-11--9--11-12-11--9--11--14-16-16/12-12/14--7--9-7--9-----------------|
E|-------------------------------------------------------------------------|

play 2x: 2nd time w/out palm muting
e|-------------------------------------------------------------------------|
B|-------------------------------------------------------------------------|
G|-11-1111--14/13--9-9-9-99-9-11-1111--14/13--7-77-9-99--------------------|
D|-------------------------------------------------------4-44444--7-77777-7|
A|--9--9-9--12/11--7-7-7-77-7--9--9-9--12/11--5-55-7-77--4-44444--7-77777-7|
E|-------------------------------------------------------2-22222--5-55555-5|
       xxx               xx       xxx           xx   xx    xxxxx    xxxxx
 "in my darkest out"

e|-------------------------|-----------------------------------------------|
B|-------------------------|-play this end of second time:-----------------|
G|----------7-77777-999999-|-11~~~-----------------------------------------|
D|-7-7-77-7----------------|-----------------------------------------------|
A|-7-7-77-7-5-55555-777777-|--9~~~-----------------------------------------|
E|-5-5-55-5----------------|-----------------------------------------------|
   x   xx     xxxxx

repeat:
e|-------------------------------------------------------------------------|
B|-------------------------------------------------------------------------|
G|---6-4h6---4-------------------------------------------------------------|
D|-4-------7---7-6-7-------------------------------------------------------|
A|-------------------------------------------------------------------------|
E|-------------------------------------------------------------------------|
============================================================================
Comments