Thrice - To Awake And Avenge The Dead Chords & Tabs

 

To Awake And Avenge The Dead Chords & Tabs

Thrice Chords & Tabs

Version: 1 Type: Bass Tab 0 ratings
1 star 2 stars 3 stars 4 stars 5 stars
comments

To Awake And Avenge The Dead Bass Tab

intro 
G|---------------------------------------------------------------------------| 
D|---------------------------------------------------------------------------| 
A|--------------3~-----------------------------------------------------------| 
E|-0~----3~------------------------------------------------------------------| 

G|------------------------------------/---------------------------------------| 
D|------------------------------------/-----end on----------------------------| 
A|-111111------------------------------/--------------------------------------| 
E|-------------5555555-----0000000---x2/-----7777777--------------------------| 

Verse 
G|---------------------------------------------------------------------------| 
D|---------------------------------------------------------------------------| 
A|-1-1-1-1-1-1-1-1-1-1-1-1-1----5-5-5-5-5-5-5-5-5-5-5-5----x2----------------| 
E|------------------------------------------------------------------0x-------| 

interlude 
G|---------------------------------------------------------------------------| 
D|---------------------------------------------------------------------------| 
A|---------------------------------------------------------------------------| 
E|-0-0-0-0-0-0-0-0-0-0-0-7-8-7-10--0-0-0-0-0-0-0-0x-0-0-0-0-0-7-8-7-10-0-0-0-| 
cont. 
G|---------------------------------------------------------------------------| 
D|---------------------------------------------------------------------------| 
A|---------------------------------------------------------------------------| 
E|-0-0-0-0-0x-0-0-0-0-7-8-7-10--0-0-0-0-0-0-0-0-0x-0-0-0-0-7-8-7-10----------| 
[ Tab from: http://www.guitartabs.cc/tabs/t/thrice/to_awake_and_avenge_the_dead_btab.html ]
second verse 
G|----------------------------------------------------/----------------------| 
D|----------------------------------------------------/--fourth time end on--| 
A|-1-1-1-1-1-1-1--------------------------------------/--dont end on 0 end on| 
E|----------------5-5-5-5-5-5-5-5------0-0-0-0-0-0-0-x3/-------7-7-7-7-7-----| 

verse 1 again 
G|---------------------------------------/------------------------------------| 
D|---------------------------------------/--the fouth time end on ------------| 
A|-1-1-1-1-1-1-1-1-1----5-5-5-5-5-5-5-x3-/--1-1-1-1-1-1-1-1-3-3-3-3-3-3-3-3---| 
E|---------------------------------------/------------------------------------| 

Metal part 
G|----------/--------------------------------/---------------------------------| 
D|----------/--------------------------------/---------------------------------| 
A|---1h3-5p3/-1-3p1-------------------1h3-5p3/-1-3p1---------------------------| 
E|-0--------/-------7-8p7--10p-8-7--0--------/-------7-8p7-10p-8-7-0000---x3---| 

G|----------/-----------------------------------------------------------------| 
D|----------/-----------------------------------------------------------------| 
A|---1h3-5h3/-1-3p1-----------------------------------------------------------| 
E|-0--------/-------7-8p7-10-8-7-5-3-2----------------------------------------| 

outro listen for the beats 
G|-----------/----------------------------------------------------------------| 
D|-----------/----------------------------------------------------------------| 
A|-----1~-3~-/--------------------1x1x1x1x1x1x1x1-3x3x3x3x3x3x3x3-------------| 
E|-0~--------/--0x0x0x0x-0x0x0x0x0-----------------------------------x2-------| 

ENDING 
G|---------------------------------------------------------------------------| 
D|---------------------------------------------------------------------------| 
A|---------------------------------------------------------------------------| 
E|--00x0x0x0x0x0x-000x-------------------------------------------------------|
Comments