Thrice - Tnc Chords & Tabs

 

Tnc Chords & Tabs

Thrice Chords & Tabs

Version: 2 Type: Tab 0 ratings
1 star 2 stars 3 stars 4 stars 5 stars
comments

Tnc Tab

   
Thrice
Identity Crisis
TnC
Thrice is quite possibly the best band ever, and this is one of there best songs! Hope you enjoy it, this 
a great song to play. For any of you not from the ?Nintendo Generation? This song is straight out of the 
game ?T?n?C Surf?, if you listen to the background music during the skateboarding game. Have fun!

(intro riff on guitar # 1)
e----------------------------------------------------------------------------------------------------|
B----------------------------------------------------------------------------------------------------|
G---------6--------4---------2--------2--------1h2------------6--------4--------2--------2--------1--|
D----------------------------------------------------------------------------------------------------|
A---4-4-----4-4------4--4------4-4-----4-4------------4-4------4-4------4-4------4-4-----4-4---------|
E----------------------------------------------------------------------------------------------------|

e----------------------------------------------------------------------------------------------------|
B----------------------------------------------------------------------------------------------------|
G---------6--------4---------2--------2--------1h2------------6--------4--------2--------2--------1--|
D----------------------------------------------------------------------------------------------------|
A---0-0-----0-0------0-0------0-0-----0-0------------0-0------0-0------0-0------0-0-----0-0----------|
E----------------------------------------------------------------------------------------------------|
(repeat 4x)

(Intro riff for second guitar comes in on the 5th time)
e-------------------------------------------------------------------------------------------------------|
B---------5-------4----------------------------------------------5--------4-----------------------------|
G---------------------------6--------6--------4h6---------------------------------6---------6--------4--|
D-------------------------------------------------------------------------------------------------------|
A---4-4-----4-4------4--4------4-4-----4-4------------4-4------4-4------4-4------4-4-----4-4------------|
E-------------------------------------------------------------------------------------------------------|
[ Tab from: http://www.guitartabs.cc/tabs/t/thrice/tnc_tab_ver_2.html ]
e-------------------------------------------------------------------------------------------------------|
B---------5-------4----------------------------------------------5--------4-----------------------------|
G---------------------------6--------6--------4h6---------------------------------6---------6--------4--|
D-------------------------------------------------------------------------------------------------------|
A---0-0-----0-0------0-0------0-0-----0-0------------0-0------0-0------0-0------0-0-----0-0-------------|
E-------------------------------------------------------------------------------------------------------|
(play until Dustin growls, then play?)


Guitar 1
(power chords)

C#              A             B            G#   (play 2x)

Guitar 2
(octaves to be played over the chords)

e-------------------------------------------|
B-------------------------------------------|
G---9---8----6--6------4/6------------------|
D-------------------------------------------|
A---7---6----4--4------2/4------------------|
E-------------------------------------------|
(play 8x)

Verse starts:

(chords palm muted, play intro riff for second guitar over this )
C#                                         A
In my head everything was perfect,
         B                                    G#
And every note resounds in harmony
C#                                          A
All I seem to offer up are dischords
         B                                               A
And every note I sing sounds out of key

Chorus
                   C# D#-E                        A                       B
And every time, I play with passion I start breaking strings
                         C#        D#-E                          A        B
And my voice cracks when I sing from my heart,
                         C#     D#-E              A                     B
Yes that?s the price, I gotta pay to know that I?m alive
                C#       D#-E               A         B
This melody keeps tearing me apart


Guitar 1
(power chords)

C#              A             B            G#   (play 2x)

Guitar 2
(octaves to be played over the chords)

e-------------------------------------------|
B-------------------------------------------|
G---9---8----6--6------4/6------------------|
D-------------------------------------------|
A---7---6----4--4------2/4------------------|
E-------------------------------------------|
Play 5x then add
e--------------------------------------------------------------|
B--------------------------------------------------------------|
G---9---11---9--9------8/9------13--11----9--9----8/9----------|
D--------------------------------------------------------------|
A---7---9----7--7------6/7-------11--9-----7--7----6/7---------|
E--------------------------------------------------------------|

e-------------------------------------------|
B-------------------------------------------|
G---9---8----6--6------4/6------------------|
D-------------------------------------------|
A---7---6----4--4------2/4------------------|
E-------------------------------------------|
Verse (exactly like the first time)
Chorus
Sorry that there is no solo, I believe that you can find the whole double lead solo on an Angel fire site. 
hope you enjoy this!
Comments