Thrice - Tnc Live Chords & Tabs

 

Tnc Live Chords & Tabs

Thrice Chords & Tabs

Version: 1 Type: Tab 0 ratings
1 star 2 stars 3 stars 4 stars 5 stars
comments

Tnc Live Tab

   
#----------------------------------PLEASE NOTE---------------------------------#
#This file is the author's own work and represents their interpretation of the #
#song. You may only use this file for private study, scholarship, or research. #
#------------------------------------------------------------------------------##

                                      T & C
                              As recorded by Thrice

Words by Dustin Kensrue

Music by Thrice
Transcribed by Identity Crisis/ThePrizeFighterInferno On Powertab

Gtr I (Eb Ab Db Gb Bb Eb) - 'Tepmeister'
Gtr II (Eb Ab Db Gb Bb Eb) - 'Dustin'
Gtr III (Eb Ab Db Gb Bb Eb) - 'Pickslides'

 Intro
  Fast-Rock Q=108
  C#5
 4/4
  Gtr I
                                     >
  W                                 +W
|---------------------------------|----------------------------------|
|---------------------------------|----------------------------------|
|-6-------------------------------|-(6)------------------------------|
|-6-------------------------------|-(6)------------------------------|
|-4-------------------------------|-(4)------------------------------|
|---------------------------------|----------------------------------|
|
| Gtr II
| PM|   PM|   PM|   PM|   PM|        PM-|   PM|   PM|   PM|   PM|
| S S S S S S S S S S S S S S S S    S  S S S S S S S S S S S S S E
|---------------------------------|----------------------------------|
|---------------------------------|----------------------------------|
|-----6-----4---------------------|-------6-----4--------------------|
|-----------------7-----7-----6h7-|-------------------7-----7-----6--|
|-4-4---4-4---4-4---4-4---4-4-----|--4--4---4-4---4-4---4-4---4-4----|
|---------------------------------|----------------------------------|


  A5
  E   H..                             W
|-----------------------------------|-------------------------------|
|-----------------------------------|-------------------------------|
|-2---------------------------------|-------------------------------|
|-2---------------------------------|-------------------------------|
|-0---------------------------------|-------------------------------|
|-----------------------------------|-------------------------------|
|
| PM|     PM|   PM|   PM|   PM|       PM|   PM|   PM|   PM|   PM|
| S S S   S S S S S S S S S S S S S   S S S S S S S S S S S S S S E
|-----------------------------------|-------------------------------|
|-----------------------------------|-------------------------------|
|-----6-------4---------------------|-----6-----4-------------------|
|-------------------7-----7-----6h7-|-----------------7-----7-----6-|
|-0-0-----0-0---0-0---0-0---0-0-----|-0-0---0-0---0-0---0-0---0-0---|
|-----------------------------------|-------------------------------|


  C#5
  W                                 +H                E.     E.     E
|---------------------------------|-------------------4---------------|
|---------------------------------|--------------------------5--------|
|-6-------------------------------|-(6)-----------------------------6-|
|-6-------------------------------|-(6)-------------------------------|
|-4-------------------------------|-(4)-------------------------------|
|---------------------------------|-----------------------------------|
|
| PM|   PM|   PM|   PM|   PM|        PM-|   PM|   PM|    PM|    PM|
| S S S S S S S S S S S S S S S S    S  S S S S S S S S  S S S  S S E
|---------------------------------|-----------------------------------|
|---------------------------------|-----------------------------------|
|-----6-----4---------------------|-------6-----4---------------------|
|-----------------7-----7-----6h7-|-------------------7------7------6-|
|-4-4---4-4---4-4---4-4---4-4-----|--4--4---4-4---4-4----4-4----4-4---|
|---------------------------------|-----------------------------------|


  A5
                                      Gtr III
                                                               TP
  E   H..                             H.                       Q
|-----------------------------------|---------------------------------||
|-----------------------------------|--------------------------x\-----||
|-2---------------------------------|--------------------------x\-----||
|-2---------------------------------|--------------------------x\-----||
|-0---------------------------------|---------------------------------||
|-----------------------------------|---------------------------------||
|
| PM|     PM|   PM|   PM|   PM|       PM-|   PM|   PM|   PM|   PM-|
| S S S   S S S S S S S S S S S S S   S  S S S S S S S S S S S S  S E
|-----------------------------------|---------------------------------||
|-----------------------------------|---------------------------------||
|-----6-------4---------------------|------6-----4--------------------||
|-------------------7-----7-----6h7-|------------------7-----7------6-||
|-0-0-----0-0---0-0---0-0---0-0-----|-0--0---0-0---0-0---0-0---0--0---||
|-----------------------------------|---------------------------------||


    N.C.
    Gtr I
    PM|   PM|   PM|   PM|   PM|       PM|   PM|   PM|   PM|   PM|
    S S S S S S S S S S S S S S S S   S S S S S S S S S S S S S S S S
||----------------------------------|---------------------------------|
||o-----5-----4---------------------|-----5-----4---------------------|
||------------------6-----6-----4h6-|-----------------6-----6-----4h6-|
||----------------------------------|---------------------------------|
||o-4-4---4-4---4-4---4-4---4-4-----|-4-4---4-4---4-4---4-4---4-4-----|
||----------------------------------|---------------------------------|
|
|   Gtr II
|   PM|   PM|   PM|   PM|   PM|       PM|   PM|   PM|   PM|   PM|
|   S S S S S S S S S S S S S S S S   S S S S S S S S S S S S S S S S
||----------------------------------|---------------------------------|
||o---------------------------------|---------------------------------|
||------6-----4---------------------|-----6-----4---------------------|
||------------------7-----7-----6h7-|-----------------7-----7-----6h7-|
||o-4-4---4-4---4-4---4-4---4-4-----|-4-4---4-4---4-4---4-4---4-4-----|
||----------------------------------|---------------------------------|


  PM|   PM|   PM|   PM|   PM|       PM|   PM|   PM|   PM|   PM|
  S S S S S S S S S S S S S S S S   S S S S S S S S S S S S S S S S
|---------------------------------|-----------------------------------||
|-----5-----4---------------------|-----5-----4----------------------o||
|-----------------6-----6-----4h6-|-----------------6-----6-----4h6---||
|---------------------------------|-----------------------------------||
|-0-0---0-0---0-0---0-0---0-0-----|-0-0---0-0---0-0---0-0---0-0------o||
|---------------------------------|-----------------------------------||
|
| PM|   PM|   PM|   PM|   PM|       PM|   PM|   PM|   PM|   PM|
| S S S S S S S S S S S S S S S S   S S S S S S S S S S S S S S S S
|---------------------------------|-----------------------------------||
|---------------------------------|----------------------------------o||
|-----6-----4---------------------|-----6-----4-----------------------||
|-----------------7-----7-----6h7-|-----------------7-----7-----6h7---||
|-0-0---0-0---0-0---0-0---0-0-----|-0-0---0-0---0-0---0-0---0-0------o||
|---------------------------------|-----------------------------------||


 Pre-Verse
  C#5                                   A5
  E E +S  E   +S  E   +S  E   +S  S S   E E +S  E   +S  E   +S  E   +S  S S
|-------------------------------------|-------------------------------------|
|-------------------------------------|-------------------------------------|
|---9-(9)-8---(8)-6---(6)-6---(6)-4-6-|---9-(9)-8---(8)-6---(6)-6---(6)-4-6-|
|---x-(x)-x---(x)-x---(x)-x---(x)-x-x-|---x-(x)-x---(x)-x---(x)-x---(x)-x-x-|
|---7-(7)-6---(6)-4---(4)-4---(4)-2-4-|---7-(7)-6---(6)-4---(4)-4---(4)-2-4-|
|-------------------------------------|-------------------------------------|
|
| E E  S  S S  E    S  E    S  S  S S   E E  S  S S  E    S  E    S  S  S S
|-------------------------------------|-------------------------------------|
|-------------------------------------|-------------------------------------|
|-6-6--6--6-6--6----6--6----6--6--6-6-|-------------------------------------|
|-6-6--6--6-6--6----6--6----6--6--6-6-|-7-7--7--7-7--7----7--7----7--7--7-7-|
|-4-4--4--4-4--4----4--4----4--4--4-4-|-7-7--7--7-7--7----7--7----7--7--7-7-|
|-------------------------------------|-5-5--5--5-5--5----5--5----5--5--5-5-|


  B5                                    G#5
  E E +S  E   +S  E   +S  E   +S  S S   E E +S  E   +S  E   +S  E   +S  S S
|-------------------------------------|-------------------------------------|
|-------------------------------------|-------------------------------------|
|---9-(9)-8---(8)-6---(6)-6---(6)-4-6-|---9-(9)-8---(8)-6---(6)-6---(6)-4-6-|
|---x-(x)-x---(x)-x---(x)-x---(x)-x-x-|---x-(x)-x---(x)-x---(x)-x---(x)-x-x-|
|---7-(7)-6---(6)-4---(4)-4---(4)-2-4-|---7-(7)-6---(6)-4---(4)-4---(4)-2-4-|
|-------------------------------------|-------------------------------------|
|
| E E  S  S S  E    S  E    S  S  S S   E E  S  S S  E    S  E    S  S  S S
|-------------------------------------|-------------------------------------|
|-------------------------------------|-------------------------------------|
|-------------------------------------|-------------------------------------|
|-9-9--9--9-9--9----9--9----9--9--9-9-|-6-6--6--6-6--6----6--6----6--6--6-6-|
|-9-9--9--9-9--9----9--9----9--9--9-9-|-6-6--6--6-6--6----6--6----6--6--6-6-|
|-7-7--7--7-7--7----7--7----7--7--7-7-|-4-4--4--4-4--4----4--4----4--4--4-4-|


    C#5                                 A5
  E E +S  E   +S  E   +S  E   +S  S S   E E +S  E   +S  E   +S  E   +S  S S
|-------------------------------------|-------------------------------------|
|-------------------------------------|-------------------------------------|
|---9-(9)-8---(8)-6---(6)-6---(6)-4-6-|---9-(9)-8---(8)-6---(6)-6---(6)-4-6-|
|---x-(x)-x---(x)-x---(x)-x---(x)-x-x-|---x-(x)-x---(x)-x---(x)-x---(x)-x-x-|
|---7-(7)-6---(6)-4---(4)-4---(4)-2-4-|---7-(7)-6---(6)-4---(4)-4---(4)-2-4-|
|-------------------------------------|-------------------------------------|
|
| E E  S  S S  E    S  E    S  S  S S   E E  S  S S  E    S  E    S  S  S S
|-------------------------------------|-------------------------------------|
|-------------------------------------|-------------------------------------|
|---6--6--6-6--6----6--6----6--6--6-6-|-------------------------------------|
|---6--6--6-6--6----6--6----6--6--6-6-|-7-7--7--7-7--7----7--7----7--7--7-7-|
|---4--4--4-4--4----4--4----4--4--4-4-|-7-7--7--7-7--7----7--7----7--7--7-7-|
|-------------------------------------|-5-5--5--5-5--5----5--5----5--5--5-5-|


  B5                                    G#5
  E E +S  E   +S  E   +S  E   +S  S S   E E +S  E   +S  E   +S  E   +S  S S
|-------------------------------------|-------------------------------------||
|-------------------------------------|-------------------------------------||
|---9-(9)-8---(8)-6---(6)-6---(6)-4-6-|---9-(9)-8---(8)-6---(6)-6---(6)-4-6-||
|---x-(x)-x---(x)-x---(x)-x---(x)-x-x-|---x-(x)-x---(x)-x---(x)-x---(x)-x-x-||
|---7-(7)-6---(6)-4---(4)-4---(4)-2-4-|---7-(7)-6---(6)-4---(4)-4---(4)-2-4-||
|-------------------------------------|-------------------------------------||
|
| E E  S  S S  E    S  E    S  S  S S   E E  S  S S  E    S  E    S  S  S S
|-------------------------------------|-------------------------------------||
|-------------------------------------|-------------------------------------||
|-------------------------------------|-------------------------------------||
|-9-9--9--9-9--9----9--9----9--9--9-9-|-6-6--6--6-6--6----6--6----6--6--6-6-||
|-9-9--9--9-9--9----9--9----9--9--9-9-|-6-6--6--6-6--6----6--6----6--6--6-6-||
|-7-7--7--7-7--7----7--7----7--7--7-7-|-4-4--4--4-4--4----4--4----4--4--4-4-||


 Verse
  C#5                               A5
  PM|   PM|   PM|   PM|   PM|       PM|   PM|   PM|   PM|   PM|
  S S S S S S S S S S S S S S S S   S S S S S S S S S S S S S S S S
|---------------------------------|----------------------------------|
|-----5-----4---------------------|-----5-----4----------------------|
|-----------------6-----6-----4h6-|-----------------6-----6-----4h6--|
|---------------------------------|----------------------------------|
|-4-4---4-4---4-4---4-4---4-4-----|-0-0---0-0---0-0---0-0---0-0------|
|---------------------------------|----------------------------------|
|
|   PM----------|   PM|   PM|   PM    PM----------|   PM|   PM|   PM
| S S S S S S S S S S S S S S S S   S S S S S S S S S S S S S S S S
|---------------------------------|----------------------------------|
|---------------------------------|----------------------------------|
|---------------------------------|----------------------------------|
|-6---------------6-----6-----6---|----------------------------------|
|-4-4-4-4-4-4-4-4-4-4-4-4-4-4-4-4-|-7---------------7-----7-----7----|
|---------------------------------|-5-5-5-5-5-5-5-5-5-5-5-5-5-5-5-5--|


  B5                                G#5
  PM|   PM|   PM|   PM|   PM|       PM|   PM|   PM|   PM|   PM|
  S S S S S S S S S S S S S S S S   S S S S S S S S S S S S S S S S
|---------------------------------|----------------------------------|
|-----5-----4---------------------|-----5-----4----------------------|
|-----------------6-----6-----4h6-|-----------------6-----6-----4h6--|
|---------------------------------|----------------------------------|
|-2-2---2-2---2-2---2-2---2-2-----|----------------------------------|
|---------------------------------|-4-4---4-4---4-4---4-4---4-4------|
|
|   PM----------|   PM|   PM|   PM    PM----------|   PM|   PM|
| S S S S S S S S S S S S S S S S   S S S S S S S S S S S S S S S S
|---------------------------------|----------------------------------|
|---------------------------------|----------------------------------|
|---------------------------------|----------------------------------|
|---------------------------------|----------------------------------|
|-9---------------9-----9-----9---|-6---------------6-----6-----6-6--|
|-7-7-7-7-7-7-7-7-7-7-7-7-7-7-7-7-|-4-4-4-4-4-4-4-4-4-4-4-4-4-4-4-4--|


  C#5                               A5
  PM|   PM|   PM|   PM|   PM|       PM|   PM|   PM|   PM|   PM|
  S S S S S S S S S S S S S S S S   S S S S S S S S S S S S S S S S
|---------------------------------|----------------------------------|
|-----5-----4---------------------|-----5-----4----------------------|
|-----------------6-----6-----4h6-|-----------------6-----6-----4h6--|
|---------------------------------|----------------------------------|
|-4-4---4-4---4-4---4-4---4-4-----|-0-0---0-0---0-0---0-0---0-0------|
|---------------------------------|----------------------------------|
|
|   PM----------|   PM|   PM|   PM    PM----------|   PM|   PM|   PM
| S S S S S S S S S S S S S S S S   S S S S S S S S S S S S S S S S
|---------------------------------|----------------------------------|
|---------------------------------|----------------------------------|
|---------------------------------|----------------------------------|
|-6---------------6-----6-----6---|----------------------------------|
|-4-4-4-4-4-4-4-4-4-4-4-4-4-4-4-4-|-7---------------7-----7-----7----|
|---------------------------------|-5-5-5-5-5-5-5-5-5-5-5-5-5-5-5-5--|


  B5                                G#5
  PM|   PM|   PM|   PM|   PM|
  S S S S S S S S S S S S S S S S   S S S S S S S S S S S S S S S S
|---------------------------------|----------------------------------||
|-----5-----4---------------------|----------------------------------||
|-----------------6-----6-----4h6-|----------------------------------||
|---------------------------------|-----------------6-6-6-6-6-6-6-6--||
|-2-2---2-2---2-2---2-2---2-2-----|-6-6-6-6-6-6-6-6-6-6-6-6-6-6-6-6--||
|---------------------------------|-4-4-4-4-4-4-4-4-4-4-4-4-4-4-4-4--||
|
|   PM----------|   PM|   PM|   PM
| S S S S S S S S S S S S S S S S   S S S S S S S S S S S S S S S S
|---------------------------------|----------------------------------||
|---------------------------------|----------------------------------||
|---------------------------------|----------------------------------||
|---------------------------------|-----------------6-6-6-6-6-6-6-6--||
|-9---------------9-----9-----9---|-6-6-6-6-6-6-6-6-6-6-6-6-6-6-6-6--||
|-7-7-7-7-7-7-7-7-7-7-7-7-7-7-7-7-|-4-4-4-4-4-4-4-4-4-4-4-4-4-4-4-4--||


 Chorus
  $
  C#5   EbE5                A5      B5
  E E S E E S S S S S S S   E E S E E S S S S S S S
|-------------------------|-------------------------|
|-------------------------|-------------------------|
|-6-6-6-8-9-9-9-9-9-9-9-9-|-------------------------|
|-6-6-6-8-9-9-9-9-9-9-9-9-|-7-7-7-7-9-9-9-9-9-9-9-9-|
|-4-4-4-6-7-7-7-7-7-7-7-7-|-7-7-7-7-9-9-9-9-9-9-9-9-|
|-------------------------|-5-5-5-5-7-7-7-7-7-7-7-7-|
|
| E E S E E S S S S S S S   E E S E E S S S S S S S
|-------------------------|-------------------------|
|-------------------------|-------------------------|
|-6-6-6-8-9-9-9-9-9-9-9-9-|-------------------------|
|-6-6-6-8-9-9-9-9-9-9-9-9-|-7-7-7-7-9-9-9-9-9-9-9-9-|
|-4-4-4-6-7-7-7-7-7-7-7-7-|-7-7-7-7-9-9-9-9-9-9-9-9-|
|-4-4-4-6-7-7-7-7-7-7-7-7-|-5-5-5-5-7-7-7-7-7-7-7-7-|


  C#5   EbE5                A5      B5
  E E S E E S S S S S S S   E E S E E S S S S S S S
|-------------------------|-------------------------|
|-------------------------|-------------------------|
|-6-6-6-8-9-9-9-9-9-9-9-9-|-------------------------|
|-6-6-6-8-9-9-9-9-9-9-9-9-|-7-7-7-7-9-9-9-9-9-9-9-9-|
|-4-4-4-6-7-7-7-7-7-7-7-7-|-7-7-7-7-9-9-9-9-9-9-9-9-|
|-------------------------|-5-5-5-5-7-7-7-7-7-7-7-7-|
|
| E E S E E S S S S S S S   E E S E E S S S S S S S
|-------------------------|-------------------------|
|-------------------------|-------------------------|
|-6-6-6-8-9-9-9-9-9-9-9-9-|-------------------------|
|-6-6-6-8-9-9-9-9-9-9-9-9-|-7-7-7-7-9-9-9-9-9-9-9-9-|
|-4-4-4-6-7-7-7-7-7-7-7-7-|-7-7-7-7-9-9-9-9-9-9-9-9-|
|-4-4-4-6-7-7-7-7-7-7-7-7-|-5-5-5-5-7-7-7-7-7-7-7-7-|


  C#5/AbEbE5/B              A5      B5
  E E S E E S S E   S S S   E E S E E E   S E   E
|-------------------------|-------------------------|
|-9---9-9-9-9-9-9---9-9-9-|-9-9-9-9-7-7---7-7---7---|
|---9-9-9-9-9-9-9---9-9-9-|-9-9-9-9-8-8---8-8---8---|
|-------------------------|-------------------------|
|-------------------------|-------------------------|
|-------------------------|-------------------------|
|
| E E S E E S S S S S S S   E E S E E S S S S S S S
|-------------------------|-------------------------|
|-------------------------|-------------------------|
|-6-6-6-8-9-9-9-9-9-9-9-9-|-------------------------|
|-6-6-6-8-9-9-9-9-9-9-9-9-|-7-7-7-7-9-9-9-9-9-9-9-9-|
|-4-4-4-6-7-7-7-7-7-7-7-7-|-7-7-7-7-9-9-9-9-9-9-9-9-|
|-4-4-4-6-7-7-7-7-7-7-7-7-|-5-5-5-5-7-7-7-7-7-7-7-7-|


                                            To Coda
  C#5/AbEbE5/B              A5       B5
  E E S E E S S E   S S S   E E S  E E E   S E   E
|-------------------------|--------------------------||
|-9---9-9-9---9-9---9-9-9-|-9-9-9-10-7-7---7-7---7---||
|---9-9-9---9-9-9---9-9-9-|-9-9-9--9-8-8---8-8---8---||
|-------------------------|--------------------------||
|-------------------------|--------------------------||
|-------------------------|--------------------------||
|
| E E S E E S S S S S S S   E E S  E E S S S S S S S
|-------------------------|--------------------------||
|-------------------------|--------------------------||
|-6-6-6-8-9-9-9-9-9-9-9-9-|--------------------------||
|-6-6-6-8-9-9-9-9-9-9-9-9-|-7-7-7--7-9-9-9-9-9-9-9-9-||
|-4-4-4-6-7-7-7-7-7-7-7-7-|-7-7-7--7-9-9-9-9-9-9-9-9-||
|-4-4-4-6-7-7-7-7-7-7-7-7-|-5-5-5--5-7-7-7-7-7-7-7-7-||

[ Tab from: http://www.guitartabs.cc/tabs/t/thrice/tnc_live_tab.html ]
 Pre-Verse
  C#5                                   A5
  E E +S  E   +S  E   +S  E   +S  S S   E E +S  E   +S  E   +S  E   +S  S S
|-------------------------------------|-------------------------------------|
|-------------------------------------|-------------------------------------|
|---9-(9)-8---(8)-6---(6)-6---(6)-4-6-|---9-(9)-8---(8)-6---(6)-6---(6)-4-6-|
|---x-(x)-x---(x)-x---(x)-x---(x)-x-x-|---x-(x)-x---(x)-x---(x)-x---(x)-x-x-|
|---7-(7)-6---(6)-4---(4)-4---(4)-2-4-|---7-(7)-6---(6)-4---(4)-4---(4)-2-4-|
|-------------------------------------|-------------------------------------|
|
| E E  S  S S  E    S  E    S  S  S S   E E  S  S S  E    S  E    S  S  S S
|-------------------------------------|-------------------------------------|
|-------------------------------------|-------------------------------------|
|-6-6--6--6-6--6----6--6----6--6--6-6-|-------------------------------------|
|-6-6--6--6-6--6----6--6----6--6--6-6-|-7-7--7--7-7--7----7--7----7--7--7-7-|
|-4-4--4--4-4--4----4--4----4--4--4-4-|-7-7--7--7-7--7----7--7----7--7--7-7-|
|-------------------------------------|-5-5--5--5-5--5----5--5----5--5--5-5-|


  B5                                    G#5
  E E +S  E   +S  E   +S  E   +S  S S   E E +S  E   +S  E   +S  E   +S  S S
|-------------------------------------|-------------------------------------|
|-------------------------------------|-------------------------------------|
|---9-(9)-8---(8)-6---(6)-6---(6)-4-6-|---9-(9)-8---(8)-6---(6)-6---(6)-4-6-|
|---x-(x)-x---(x)-x---(x)-x---(x)-x-x-|---x-(x)-x---(x)-x---(x)-x---(x)-x-x-|
|---7-(7)-6---(6)-4---(4)-4---(4)-2-4-|---7-(7)-6---(6)-4---(4)-4---(4)-2-4-|
|-------------------------------------|-------------------------------------|
|
| E E  S  S S  E    S  E    S  S  S S   E E  S  S S  E    S  E    S  S  S S
|-------------------------------------|-------------------------------------|
|-------------------------------------|-------------------------------------|
|-------------------------------------|-------------------------------------|
|-9-9--9--9-9--9----9--9----9--9--9-9-|-6-6--6--6-6--6----6--6----6--6--6-6-|
|-9-9--9--9-9--9----9--9----9--9--9-9-|-6-6--6--6-6--6----6--6----6--6--6-6-|
|-7-7--7--7-7--7----7--7----7--7--7-7-|-4-4--4--4-4--4----4--4----4--4--4-4-|


    C#5                                 A5
  E E +S  E   +S  E   +S  E   +S  S S   E E +S   E    +S  E   +S  E   +S  S S
|-------------------------------------|---------------------------------------|
|-------------------------------------|---------------------------------------|
|---9-(9)-8---(8)-6---(6)-6---(6)-4-6-|---9-(9)-11---(11)-9---(9)-9---(9)-8-9-|
|---x-(x)-x---(x)-x---(x)-x---(x)-x-x-|---x-(x)--x----(x)-x---(x)-x---(x)-x-x-|
|---7-(7)-6---(6)-4---(4)-4---(4)-2-4-|---7-(7)--9----(9)-7---(7)-7---(7)-6-7-|
|-------------------------------------|---------------------------------------|
|
| E E  S  S S  E    S  E    S  S  S S   E E  S   S S   E    S  E    S  S  S S
|-------------------------------------|---------------------------------------|
|-------------------------------------|---------------------------------------|
|---6--6--6-6--6----6--6----6--6--6-6-|---------------------------------------|
|---6--6--6-6--6----6--6----6--6--6-6-|-7-7--7---7-7---7----7--7----7--7--7-7-|
|---4--4--4-4--4----4--4----4--4--4-4-|-7-7--7---7-7---7----7--7----7--7--7-7-|
|-------------------------------------|-5-5--5---5-5---5----5--5----5--5--5-5-|


  B5                                        G#5
  E  E  +S   E    +S  E   +S  E   +S  S S   E E +S  E   +S  E   S E   S E
|-----------------------------------------|---------------------------------||
|-----------------------------------------|---------------------------------||
|---13-(13)-11---(11)-9---(9)-9---(9)-8-9-|---9-(9)-8---(8)-6---x-6---x-4---||
|----x--(x)--x----(x)-x---(x)-x---(x)-x-x-|---x-(x)-x---(x)-x---x-x---x-x---||
|---11-(11)--9----(9)-7---(7)-7---(7)-6-7-|---7-(7)-6---(6)-4---x-4---x-2---||
|-----------------------------------------|---------------------------------||
|
| E  E   S   S S   E    S  E    S  S  S S   E E  S  S S  E    S E   S S S S
|-----------------------------------------|---------------------------------||
|-----------------------------------------|---------------------------------||
|-----------------------------------------|---------------------------------||
|-9--9---9---9-9---9----9--9----9--9--9-9-|-6-6--6--6-6--6----6-6---6-6-6-6-||
|-9--9---9---9-9---9----9--9----9--9--9-9-|-6-6--6--6-6--6----6-6---6-6-6-6-||
|-7--7---7---7-7---7----7--7----7--7--7-7-|-4-4--4--4-4--4----4-4---4-4-4-4-||


   Verse
    N.C.
    Gtr I
    PM|   PM|   PM|   PM|   PM|       PM|   PM|   PM|   PM|   PM|
    S S S S S S S S S S S S S S S S   S S S S S S S S S S S S S S S S
||----------------------------------|---------------------------------|
||o-----5-----4---------------------|-----5-----4---------------------|
||------------------6-----6-----4h6-|-----------------6-----6-----4h6-|
||----------------------------------|---------------------------------|
||o-4-4---4-4---4-4---4-4---4-4-----|-0-0---0-0---0-0---0-0---0-0-----|
||----------------------------------|---------------------------------|


  1.
  PM|   PM|   PM|   PM|   PM|       PM|   PM|   PM|   PM|   PM|
  S S S S S S S S S S S S S S S S   S S S S S S S S S S S S S S S S
|---------------------------------|-----------------------------------||
|-----5-----4---------------------|-----5-----4----------------------o||
|-----------------6-----6-----4h6-|-----------------6-----6-----4h6---||
|---------------------------------|-----------------------------------||
|-2-2---2-2---2-2---2-2---2-2-----|----------------------------------o||
|---------------------------------|-4-4---4-4---4-4---4-4---4-4-------||


  2.
  PM|   PM|   PM|   PM|   PM|
  S S S S S S S S S S S S S S S S
|---------------------------------|
|-----5-----4---------------------|
|-----------------6-----6-----4h6-|
|---------------------------------|
|-2-2---2-2---2-2---2-2---2-2-----|
|---------------------------------|
|
| Gtr II
| W
|---------------------------------|
|---------------------------------|
|---------------------------------|
|---------------------------------|
|---------------------------------|
|---------------------------------|


                                   D.S. al Coda
  G#5
   S  S  S  S  S  S  S  S  S  S  S  S  S  S  S  S
|--------------------------------------------------||
|--------------------------------------------------||
|--------------------------------------------------||
|--6--6--6--6--6--6--6--6--6--6--6--6--6--6--6--6--||
|--6--6--6--6--6--6--6--6--6--6--6--6--6--6--6--6--||
|--4--4--4--4--4--4--4--4--4--4--4--4--4--4--4--4--||
|
|  S  S  S  S  S  S  S  S  S  S  S  S  S  S  S  S
|--------------------------------------------------||
|--------------------------------------------------||
|--------------------------------------------------||
|-18-18-18-18-18-18-18-18-18-18-18-18-18-18-18-18--||
|-18-18-18-18-18-18-18-18-18-18-18-18-18-18-18-18--||
|-16-16-16-16-16-16-16-16-16-16-16-16-16-16-16-16--||


 Guitar Solo
  &
  N.C.
  E S S E S S S S S E S E    E S S E S S S S S E S E
|---4-2-4-2-4-5-4-2-4-2----|---4-2-4-2-4-5-4-2-4-2----|
|-----------------------5\-|-----------------------5\-|
|--------------------------|--------------------------|
|--------------------------|--------------------------|
|--------------------------|--------------------------|
|--------------------------|--------------------------|
|
| E S S E S S S S S E S E    E S S E S S S S S E S E
|--------------------------|--------------------------|
|---5-4-5-4-5-7-5-4-5-4----|---5-4-5-4-5-7-5-4-5-4----|
|-----------------------6--|-----------------------6--|
|--------------------------|--------------------------|
|--------------------------|--------------------------|
|--------------------------|--------------------------|


                                     |-3-|
  E S S E S S S S S E S E    E S S E S S S E. E. E
|---4-2-4-2-4-5-4-2-4-2----|---4-2-4-2-4-2---------|
|-----------------------5\-|---------------4--5--7-|
|--------------------------|-----------------------|
|--------------------------|-----------------------|
|--------------------------|-----------------------|
|--------------------------|-----------------------|
|
| E S S E S S S S S E S E    E S S E E     E. E. E
|--------------------------|-----------------------|
|---5-4-5-4-5-7-5-4-5-4----|---5-4-5-4-----------4-|
|-----------------------6--|---------------4--6----|
|--------------------------|-----------------------|
|--------------------------|-----------------------|
|--------------------------|-----------------------|


  PM----------------------|
  S S S S S S S S S S S S Q
|-----------------4-------7--|
|-7-5-4-----4-5-7---7-4-5----|
|-------4-6------------------|
|----------------------------|
|----------------------------|
|----------------------------|
|
| W
|----------------------------|
|----------------------------|
|----------------------------|
|----------------------------|
|----------------------------|
|----------------------------|


   |-3-|  |-3-|  |-3-|  |-3-|  |-3-|  |-3-|  |-3-|  |-3-|
   S S S  S S S  S S S  S S S  S S S  S S S  S S S  S S S
|-11p9---12p9---11p9---12p9---11p9---12p9---11p9---12p9----|
|------9------9------9------9------9------9------9------9--|
|----------------------------------------------------------|
|----------------------------------------------------------|
|----------------------------------------------------------|
|----------------------------------------------------------|
|
|  W
|----------------------------------------------------------|
|----------------------------------------------------------|
|----------------------------------------------------------|
|----------------------------------------------------------|
|--0-------------------------------------------------------|
|----------------------------------------------------------|


                       |-3--|
  S S  S  S  S S  S  S S  S S  S    S  E    E
|---9-11-12-11-9----------------------------9-|
|-9--------------12-10-9h10p9---------------9-|
|-----------------------------11b13-9-11b13---|
|---------------------------------------------|
|---------------------------------------------|
|---------------------------------------------|
|
| W
|---------------------------------------------|
|---------------------------------------------|
|---------------------------------------------|
|---------------------------------------------|
|-2-------------------------------------------|
|---------------------------------------------|


   S    S S  S    S S  S    S S  S    S S  S    S E
|---------9---------9---------9---------9---------9--|
|-------9---------9---------9---------9---------9----|
|-11b13-----11b13-----11b13-----11b13-----11b13------|
|----------------------------------------------------|
|----------------------------------------------------|
|----------------------------------------------------|
|
|  W
|----------------------------------------------------|
|----------------------------------------------------|
|----------------------------------------------------|
|----------------------------------------------------|
|----------------------------------------------------|
|--4-------------------------------------------------|


   E.  E.  E  E.  E.  E    E.  E.  E  a  E.  E.  E
|-16--12-------------16-|-14--12--11-11h12--11---9\-|
|---------14-----14-----|---------------------------|
|------------13---------|---------------------------|
|-----------------------|---------------------------|
|-----------------------|---------------------------|
|-----------------------|---------------------------|
|
|  E.  E.  E  E.  E.  E    E.  E.  E     E.  E.  E
|-12---9-------------12-|-11---9---------9----------|
|----------9------9-----|---------12--------12--10\-|
|-------------9---------|---------------------------|
|-----------------------|---------------------------|
|-----------------------|---------------------------|
|-----------------------|---------------------------|


                          |--3--|  |--3--| |-3--| |-3-|
   E.  E.  E E.  E.  E    S  S  S  S  S  S S  S S S S S S  S S S Q
|--9-------------------|--------------------------------------------|
|-----12--10-9--10--12-|-12h14p12-10h12p10-9h10p9-7h9p7-9-----------|
|----------------------|----------------------------------11-9-8-8--|
|----------------------|--------------------------------------------|
|----------------------|--------------------------------------------|
|----------------------|--------------------------------------------|
|
|                         |--3--|  |--3--| |-3--| |-3-|
|  E.  E.  E E.  E.  E    S  S  S  S  S  S S  S S S S S S  S S S Q
|----------------------|--------------------------------------------|
|-10---9-------------9-|--9h10p=9--7h=9p=7-5h=7p5-4h5p4-5--4--------|
|---------11-9--11-----|-------------------------------------6-4-5--|
|----------------------|--------------------------------------------|
|----------------------|--------------------------------------------|
|----------------------|--------------------------------------------|


   |--3--|        |--3--|        |--3--|        |--3--|
   S  S  S  S  S  S  S  S  S  S  S  S  S  S  S  S  S  S  S  S
|-12h16p12-------12h16p12-------12h16p12-------12h16p12-------|
|----------14-------------14-------------14-------------14----|
|-------------13-------------13-------------13-------------13-|
|-------------------------------------------------------------|
|-------------------------------------------------------------|
|-------------------------------------------------------------|
|
|  |--3--|        |--3--|        |--3--|        |--3--|
|  S  S  S  S  S  S  S  S  S  S  S  S  S  S  S  S  S  S  S  S
|--9h12p=9--------9h12p=9--------9h12p=9--------9h12p=9-------|
|-----------9--------------9--------------9--------------9----|
|--------------9--------------9--------------9--------------9-|
|-------------------------------------------------------------|
|-------------------------------------------------------------|
|-------------------------------------------------------------|


   |--3--|        |--3--|        |--3--|        |--3--|
   S  S  S  S  S  S  S  S  S  S  S  S  S  S  S  S  S  S  S  S
|-12h16p12-------12h16p12-------12h16p12-------12h16p12--------|
|----------14-------------14-------------14-------------14-----|
|-------------13-------------13-------------13-------------13--|
|--------------------------------------------------------------|
|--------------------------------------------------------------|
|--------------------------------------------------------------|
|
|  |--3--|        |--3--|        |--3--|        |--3--|
|  S  S  S  S  S  S  S  S  S  S  S  S  S  S  S  S  S  S  S  S
|--9h12p=9--------9h12p=9--------9h12p=9--------9h12p=9--------|
|-----------9--------------9--------------9--------------9-----|
|--------------9--------------9--------------9--------------9--|
|--------------------------------------------------------------|
|--------------------------------------------------------------|
|--------------------------------------------------------------|


                     |--3--|  |-3--|  |-3--| |-3--|
   S     +S   S  S   S  S  S  S  S S  S S  S S  S S  Q
|-14b16r(14)-12-----12--------------------------------------|
|---------------14-----14-12h14p12-9h11p9----9--------------|
|-----------------------------------------11---11p9---------|
|---------------------------------------------------11------|
|-----------------------------------------------------------|
|-----------------------------------------------------------|
|
|  E.            E.           H                         +E
|-14------------12-----------11------------------------(11)-|
|-----------------------------------------------------------|
|-----------------------------------------------------------|
|-----------------------------------------------------------|
|-----------------------------------------------------------|
|-----------------------------------------------------------|


  S S S S S S S T T S S T T S S E.
|-----------------------------------||
|-------------4-5h7p5---5h7p5-------||
|---------4h6---------6-------6p4---||
|-----4h6---------------------------||
|-4h7-------------------------------||
|-----------------------------------||
|
| Gtr III
| TP      TP        TP        TP
| Q       Q         Q         Q
|-----------------------------------||
|-----------------------------------||
|-----------------------------------||
|-xS======xS========xS========x-----||
|-xS======xS========xS========x-----||
|-xS======xS========xS========x-----||


   Outro
    C#5                       A5
    Gtrs I, II
    E E S S S E S S E S S S   E E S S S E S S E S S S
||--------------------------|-------------------------|
||o-------------------------|-------------------------|
||--6-6-6-6-6-6-6-6-6-6-6-6-|-------------------------|
||--6-6-6-6-6-6-6-6-6-6-6-6-|-7-7-7-7-7-7-7-7-7-7-7-7-|
||o-4-4-4-4-4-4-4-4-4-4-4-4-|-7-7-7-7-7-7-7-7-7-7-7-7-|
||--------------------------|-5-5-5-5-5-5-5-5-5-5-5-5-|


  B5                        G#5
  E E S S S E S S E S S S   E E S S S E S S E S S S
|-------------------------|-------------------------|
|-------------------------|-------------------------|
|-------------------------|-------------------------|
|-9-9-9-9-9-9-9-9-9-9-9-9-|-6-6-6-6-6-6-6-6-6-6-6-6-|
|-9-9-9-9-9-9-9-9-9-9-9-9-|-6-6-6-6-6-6-6-6-6-6-6-6-|
|-7-7-7-7-7-7-7-7-7-7-7-7-|-4-4-4-4-4-4-4-4-4-4-4-4-|


  C#5                       A5
  E E S S S E S S E S S S   E E S S S E S S E S S S
|-------------------------|-------------------------|
|-------------------------|-------------------------|
|-6-6-6-6-6-6-6-6-6-6-6-6-|-------------------------|
|-6-6-6-6-6-6-6-6-6-6-6-6-|-7-7-7-7-7-7-7-7-7-7-7-7-|
|-4-4-4-4-4-4-4-4-4-4-4-4-|-7-7-7-7-7-7-7-7-7-7-7-7-|
|-------------------------|-5-5-5-5-5-5-5-5-5-5-5-5-|


  B5                        G#
  E E S S S E S S E S S S   E S E S E S E S e e
|-------------------------|----------------------||
|-------------------------|---------------------o||
|-------------------------|-5-x-5-x-5-x-5-x-5-5--||
|-9-9-9-9-9-9-9-9-9-9-9-9-|-6-x-6-x-6-x-6-x-6-6--||
|-9-9-9-9-9-9-9-9-9-9-9-9-|-6-x-6-x-6-x-6-x-6-6-o||
|-7-7-7-7-7-7-7-7-7-7-7-7-|-4-x-4-x-4-x-4-x-4-4--||


  C#5
  Gtr I
  Q.    Q    E   E  E   +W
|---------------------|--------*|
|---------------------|--------*|
|---------------------|--------*|
|-2-----1----2---1----|--------*|
|-4----(4)--(4)-(4)-4-|-(4)----*|
|---------------------|--------*|
|
| Gtr II
| W                     +W
|---------------------|--------*|
|---------------------|--------*|
|-6-------------------|-(6)----*|
|-6-------------------|-(6)----*|
|-4-------------------|-(4)----*|
|---------------------|--------*|


Duration Legend
---------------
W - whole; H - half; Q - quarter; E - 8th; S - 16th; T - 32nd; X - 64th; a - acciaccatura
+ - note tied to previous; . - note dotted; .. - note double dotted
Uncapitalized letters represent notes that are staccato (1/2 duration)
Irregular groupings are notated above the duration line
Duration letters will always appear directly above the note/fret number it represents the
duration for.  Duration letters with no fret number below them represent rests.  Multi-
bar rests are notated in the form Wxn, where n is the number of bars to rest for.  Low
melody durations appear below the staff

Tablature Legend
----------------
 h   - hammer-on
 p   - pull-off
 b   - bend
 pb  - pre-bend
 r   - bend release (if no number after the r, then release immediately)
 /\  - slide into or out of (from/to "nowhere")
 s   - legato slide
 S   - shift slide
  - natural harmonic
[n]  - artificial harmonic
n(n) - tapped harmonic
 ~   - vibrato
 tr  - trill
 T   - tap
 TP  - trem. picking
 PM  - palm muting
\n/  - tremolo bar dip; n = amount to dip
 \n  - tremolo bar down
 n/  - tremolo bar up
/n\  - tremolo bar inverted dip
 =   - hold bend; also acts as connecting device for hammers/pulls
 <>  - volume swell (louder/softer)
 x   - on rhythm slash represents muted slash
 o   - on rhythm slash represents single note slash

Misc Legend
-----------
 |  - bar
||  - double bar
||o - repeat start
o|| - repeat end
*|  - double bar (ending)
 :  - bar (freetime)
 $  - Segno
 &  - Coda
Tempo markers -  = BPM(8/16=s8/s16), where s8 = swing 8ths, s16 = swing 16ths


***************************************************************************************
* Generated using Power Tab Editor by Brad Larsen - http://powertab.guitarnetwork.org *
***************************************************************************************
Comments