Thrice - The Red Death Chords & Tabs

 

The Red Death Chords & Tabs

Thrice Chords & Tabs

Version: 1 Type: Bass Tab 0 ratings
1 star 2 stars 3 stars 4 stars 5 stars
comments

The Red Death Bass Tab

h - hammer 
p - pull off 

G|---------------------------------------------------------------------------| 
D|---------------------------------------------------------------------------| 
A|-00--00--00-00--00--00-33--33--33-33--33--33-------------------------------| 
E|---------------------------------------------------------------------------| 

G|---------------------------------------------------------------------------| 
D|---------------------------------------------------------------------------| 
A|-55--55--55-55--55--55-00--00--00-00--00-----------------------------------| 
E|---------------------------------------------------------------------------| 

G|---------------------------------------------------------------------------| 
D|---------------------------------------------------------------------------| 
A|-0-0-000-0-00-0000--3-3-333-3-33-3333--5-5-555-6-66-6666--0-0-000-0-00-0000| 
E|---------------------------------------------------------------------------| 

G|---------------------------------------------------------------------------| 
D|---------------------------------------------------------------------------| 
A|-0-0-000-0-00-0000--3-3-333-3-33-3333--5-5-555-6-66-6666--0-0-000-0-00-0000| 
E|---------------------------------------------------------------------------| 

G|---------------------------------------------------------------------------| 
D|---------------------------------------------------------------------------| 
A|---------------------------------------------------------------------------| 
E|-5555555555555555-3333333333333333-1111111111111111-3333333333333333-------| 

G|---------------------------------------------------------------------------| 
D|---------------------------------------------------------------------------| 
A|---------------------------------------------------------------------------| 
E|-5555555555555555-3333333333333333-1111111111111111-3333333333333333-------| 

G|---------------------------------------------------------------------------| 
D|-----------000--333333--------------000--333322----------------------------| 
A|-000000-------------------000000-------------------------------------------| 
E|---------------------------------------------------------------------------| 

G|---------------------------------------------------------------------------| 
D|-----------000--333333----22222222--2h3-2p0-2h3-2--------------------------| 
A|-000000-------------------------------------------h3-----------------------| 
E|---------------------------------------------------------------------------| 

G|---------------------------------------------------------------------------| 
D|-----------------------------------3-2-0-2---------------------------------| 
A|-----5-3-2-3------3---5-------------------------3---5----------------------| 
E|-5-3------------5---3---5-----5--3------------5---3---5--------------------| 

G|---------------------------------------------------------------------------| 
D|-----------------------------------3-2-3-5---------------------------------| 
A|-----5-3-2-3------3---5-------------------------3---5----------------------| 
E|-5-3------------5---3---5-----5--3------------5---3---5--------------------| 
[ Tab from: http://www.guitartabs.cc/tabs/t/thrice/the_red_death_btab.html ]
G|---------------------------------------------------------------------------| 
D|---------------------------------------------------------------------------| 
A|---------------------------------------------------------------------------| 
E|-1-1-111-1-11-1111-0-0-000--3-3--3--33-------------------------------------| 

G|-(guitar solo)-------------------------------------------------------------| 
D|---------------------------------------------------------------------------| 
A|-0-0-000-7-77-7777-8-8-888-8-88-8888---------------------------------------| 
E|-------------------------------------5-5-555-3-33-3333-1-1-111-1-11-1111---| 

G|---------------------------------------------------------------------------| 
D|-2-2-222-3-33-3333-0-0-000-0-00-0000---------------------------------------| 
A|-------------------------------------0-0-000-7-77-7777-8-8-888-8-88-8888---| 
E|---------------------------------------------------------------------------| 

G|---------------------------------------------------------------------------| 
D|---------------------------------------------------------------------------| 
A|-0000-22-2h3---00-22-2h3---00-22-2h3---00-22-2h3---00-22-2h3p0-------------| 
E|---------------------------------------------------------------------------| 

G|---------------------------------------------------------------------------| 
D|-(guitar comes in)---------------------------------------------------------| 
A|-0000-22-2h3---00-22-2h3---00-22-2h3---00-22-2h3---00-22-2h3p0-------------| 
E|---------------------------------------------------------------------------| 

G|---------------------------------------------------------------------------| 
D|-(other guitar comes in)---------------------------------------------------| 
A|-0000-22-2h3---00-22-2h3---00-22-2h3---00-22-2h3---00-22-2h3p0-------------| 
E|---------------------------------------------------------------------------| 

G|---------------------------------------------------------------------------| 
D|---------------------------------------------------------------------------| 
A|-0000-22-2h3---00-22-2h3---00-22-2h3---00-22-2h3---00-22-2h3p0-------------| 
E|---------------------------------------------------------------------------| 

G|---------------------------------------------------------------------------| 
D|---------------------------------------------------------------------------| 
A|-0---0---0---0---0---0---0-0-----------------------------------------------| 
E|---------------------------------------------------------------------------| 

G|---------------------------------------------------------------------------| 
D|--------000-333333--------000-333322--------000-333333----------000-333322-| 
A|-000000------------000000------------000000------------000000--------------| 
E|---------------------------------------------------------------------------| 

G|---------------------------------------------------------------------------| 
D|---------000-333333------------000-333322----------------------------------| 
A|-000-333---------------000-333---------------------------------------------| 
E|---------------------------------------------------------------------------| 

G|---------------------------------------------------------------------------| 
D|---------000-333333----22222222--2h3-2p0-2h3-2-----------------------------| 
A|-000-333---------------------------------------h3-0----------done----------| 
E|---------------------------------------------------------------------------|
Comments