Thrice - The Next Day Chords & Tabs

 

The Next Day Chords & Tabs

Thrice Chords & Tabs

Version: 2 Type: Tab 0 ratings
1 star 2 stars 3 stars 4 stars 5 stars
comments

The Next Day Tab

   
Name:    Hazza069
Artist:  Thrice
Song :   The next day
For:     Guitar
Tuning:  E,A,D,G,B,E
E-mail:  ilikeporno069@hotmail.com
Album: identity crisis

Chords used:


E---0---0---0---0---|
B---0---3---3---1---|
G---7---0---0---0---|
D---5---4---2---2---|
A---7---5---3---0---|
E-------------------|


MY interpretation of the finger pattern:

[ Tab from: http://www.guitartabs.cc/tabs/t/thrice/the_next_day_tab_ver_2.html ]
E---------0-----0--------------0-----0-------------0-----0-----
B--------------------------3-----3-----3-------3-----3-----3---
G-----7-----7-----7----------------0-----0-------------0-----0-
D---5---5-----5-----5----4---4---------------2---2-------------
A-7--------------------5-------------------3-------------------
E--------------------------------------------------------------

E-----0--------------| This isnt exact but i like to play it like this
B-------1-------1--3-| and i often add in ac ouple more of the bass A
G---------0-----0--0-| notes alogn side with the rest to make it sound
D---2----------------| as tho it has more depth.
A-0---------2-3---5--|
E--------------------|

How you play it is up to you.

Contact me on 'ilikeporno069@hotmail.com' if u have any problems or just wanna
chat, this is my first thrice tab and my first in a long time (im lazy)
so hope this covers what your after!
                      Haz

p.s it is on the album richard....
Comments