Thrice - The Melting Point Of Max Chords & Tabs

 

The Melting Point Of Max Chords & Tabs

Thrice Chords & Tabs

Version: 1 Type: Bass Tab 0 ratings
1 star 2 stars 3 stars 4 stars 5 stars
comments

The Melting Point Of Max Bass Tab

   
Intro
F|-------------------------------------|
C|-------------------------------------|
G|-------4h5-5-4-------4h5-5-4---------|
C|-4-44-----------4-44----------000000-| repeat x2

Verse
F|-------------------------------------|
C|---44---4---44---4---00---0---00-----|
G|-------------------------------------|
C|-4----4---4----4---0----0---0--------| play until changes

F|-------------|
C|-------------|
G|-------------|
C|-0-0-0-22222-|

"There's no promice of safety"

F|-------------------------------------|
C|-------------------------------------|
G|-------4h5-5-4-------4h5-5-4---------|
C|-4-44-----------4-44----------000000-|

F|---------------------------------------|
C|-000-444-777-121212--------------------|
G|---------------------4h5-5-4h5-5-4h5-5-|
C|---------------------------------------|

then repeat the verse

1:25 "but how will i"

F|-----------------------------------|
C|------4h7-7-6-------12-10-8--------|
G|-----------------------------------|
C|-0000---------0000-----------00000-|

next bit
[ Tab from: http://www.guitartabs.cc/tabs/t/thrice/the_melting_point_of_max_btab.html ]
F|-------------------------------------|
C|-------------------------------------|
G|-------4h5-5-4-------4h5-5-4---------|
C|-4-44-----------4-44----------000000-|

F|---------------------------------------|
C|-000-444-777-121212--------------------|
G|---------------------4h5-5-4h5-5-4h5-5-|
C|---------------------------------------|  repeat all this x2

F|-----------------|
C|-----------------|
G|-44-55-55-44-3h5-|
C|-----------------| repeat loads

F|--------|
C|--------|
G|--------|
C|-444444-

F|-----------------|
C|-----------------|
G|-44-55-55-44-3h5-|
C|-----------------| repeat loads

F|--------------------------|
C|--------------------------|
G|--333333-777777-555555-5~-|
C|--------------------------|

then

next bit

F|-------------------------------------|
C|-------------------------------------|
G|-------4h5-5-4-------4h5-5-4---------|
C|-4-44-----------4-44----------000000-|

F|---------------------------------------|
C|-000-444-777-121212--------------------|
G|---------------------4h5-5-4h5-5-4h5-5-|
C|---------------------------------------|

ending with

F|-----------------|
C|-----------------|
G|---------------5-|
C|-0-0-0-0-0-0-0-0-|
Comments