Thrice - The Artist In The Ambulance Chords & Tabs

 

The Artist In The Ambulance Chords & Tabs

Thrice Chords & Tabs

Version: 2 Type: Tab 0 ratings
1 star 2 stars 3 stars 4 stars 5 stars
comments

The Artist In The Ambulance Tab

Song: The Artist in the Ambulance  
Album: Artist in the Ambulance
Artist: Thrice
Tabber: Luka Vuk 
msn: eccofuture@hotmail.com
                  
Enjoy the tab, and add me on msn to talk guitar...yay!
Intro/ Main Riff (Rhythm)
D||-------------------| These are power
A||-------------------| chords palm muted
F||*------------------|
C||*------------------|
G||---5---1---3---3---|
C||---5---1---1---3---| Then Play them again without palm muting
 (letting them ring - listen to the song for when to do what)
                                                                
Main Riff (Lead)                                                  
--------------------------------------------------|
-----15----------15----15-15----13-15----15-------|
--15----12-15-12----12-------12-------15----14h15-|
--------------------------------------------------|
--------------------------------------------------|
--------------------------------------------------|
                                                      
-----------------------------------------------------|
-----15----------15----15-15h16-15h16h15-13h15-11-13-|
--15----12-15-12----12-------------------------------|
-----------------------------------------------------|
-----------------------------------------------------|
-----------------------------------------------------|
                                                    
-----------13----------------------------------------|
--13-15----------15----15-13h15----13-15h13h15----13-|
--------15----15----15----------15-------------15----|
-----------------------------------------------------|
-----------------------------------------------------|
-----------------------------------------------------|
                                                
------------------------------------------------|
--16h15-16h15-13--13----15----------13h15-------|
---------------------15----15-14-15-------14h15-|
------------------------------------------------|
------------------------------------------------|
------------------------------------------------|
                                                             
--------------------|
--------------------|
--15----------------|
--------------------|
--------------------|
--------------------|

Pre Chorus (Rhythm)
|-----------------------------|
|-----------------------------|
|-----------------------------|
|-----------------------------|
|--1--1--1--x-x-1--1--1-1-1-1-|
|--1--1--1--x-x-1--1--1-1-1-1-|
                                                              
-----------------------------|-------------------------------|
-----------------------------|-------------------------------|
-----------------------------|-------------------------------|
-----------------------------|-------------------------------|
--1--1--1--x-x-1--1--1-1-1-1-|-----------5---------5---------|
--1--1--1--x-x-1--1--1-1-1-1-|--x-x-5--5---0-0-3-3---0--0-0--|
                                                           
-----------------------------|-----------------------------|
-----------------------------|-----------------------------|
-----------------------------|-----------------------------|
-----------------------------|-----------------------------|
--1--1--1--x-x-1--1--1-1-1-1-|--1--1--1--x-x-1--1--1-1-1-1-|
--1--1--1--x-x-1--1--1-1-1-1-|--1--1--1--x-x-1--1--1-1-1-1-|
                                               
----------------------------------|-----------|
----------------------------------|-----------|
----------------------------------|-----------|
----------------------------------|-----------|
--5-5-5-5-5-5-5-5-3-3-3-3-3-3-3-3/|--1--------|
--5-5-5-5-5-5-5-5-3-3-3-3-3-3-3-3/|--1--------|
[ Tab from: http://www.guitartabs.cc/tabs/t/thrice/the_artist_in_the_ambulance_tab_ver_2.html ]
Pre Chorus (Lead)                                                       
|----6-6-----6-6-----8-8-8-8---6-6-|
|--4-----4-4-----4-4---------4-----|
|----------------------------------|
|----------------------------------|
|----------------------------------|
|----------------------------------|
                                                     
----6-6-----6-6-----8-8-8-8---6-6-|--6--------5--------|
--4-----4-4-----4-4---------4-----|--------------------|
----------------------------------|--------------------|
----------------------------------|--------------------|
----------------------------------|--------------------|
----------------------------------|--------------------|
                                 
----6-6-----6-6-----8-8-8-8---6-6-|
--4-----4-4-----4-4---------4-----|
----------------------------------|
----------------------------------|
----------------------------------|
----------------------------------|
                                   
----6-6-----6-6-----8-8-8-8---6-6-|
--4-----4-4-----4-4---------4-----|
----------------------------------|
----------------------------------|
----------------------------------|
----------------------------------|

--6-----6---5-6-8-6-----6---6-5---|--3--------| play 8 second time 
----3-4---3---------3-4---3-----6-|-*8*-------| only without 3
----------------------------------|-----------|
----------------------------------|-----------|
----------------------------------|-----------|
----------------------------------|-----------|

Bit during holding of lead note (Rhythm)                                               
|-------------------|
|-------------------|
|-------------------|
|-------------------|
|--5----------------|
|--5----------------|
                                                     
----------------------------------|-------------------|
----------------------------------|-------------------|
----------------------------------|-------------------|
----------------------------------|-------------------|
--1-1-1-1-1-1-1-1-1-1-1-1-1-1-1-1-|--8----------------|
--1-1-1-1-1-1-1-1-1-1-1-1-1-1-1-1-|--8----------------|

      
Interlude (Rhythm)                                                                     
|----------------------------------|
|----------------------------------|
|----------------------------------|
|----------------------------------|
|--5-5-5-5-x-x-5-5-5-5-5-5-5-5-5-5-|
|--5-5-5-5-x-x-5-5-5-5-5-5-5-5-5-5-| 2x
                                                                
----------------------------------|
----------------------------------|
----------------------------------|
----------------------------------|
--3-3-3-3-x-x-3-3-3-3-3-3-3-3-3-3-|
--3-3-3-3-x-x-3-3-3-3-3-3-3-3-3-3-| 2x
                                                                 
----------------------------------|
----------------------------------|
----------------------------------|
----------------------------------|
--5-5-5-5-x-x-5-5-5-5-5-5-5-5-5-5-|
--5-5-5-5-x-x-5-5-5-5-5-5-5-5-5-5-| 2x
                                                                    
----------------------------------|
----------------------------------|
----------------------------------|
----------------------------------|
--3-3-3-3-x-x-3-3-3-3-3-3-3-3-3-3-|
--3-3-3-3-x-x-3-3-3-3-3-3-3-3-3-3-|
                                  
----------------------------------|
----------------------------------|
----------------------------------|
----------------------------------|
--1-1-1-1-1-1-1-1-3-3-3-3-3-3-3-3-|
--1-1-1-1-1-1-1-1-3-3-3-3-3-3-3-3-|
                                             
(Interlude) Lead
--15--------------------|--15--------------------|
------------10----11----|------------11----10----|
------------------------|------------------------|
------------------------|------------------------|
------------------------|------------------------|
------------------------|------------------------|
                                               
--13------------------|--13--------------------|
------------11--------|------------11----10----|
----------------------|------------------------|
----------------------|------------------------|
----------------------|------------------------|
----------------------|------------------------|
                                                 
--15--------------------|--15--------------------|
------------10----11----|------------11----10----|
------------------------|------------------------|
------------------------|------------------------|
------------------------|------------------------|
------------------------|------------------------|
                                                                
--13----------------|--10--------3--------|
--13----------------|--8---------8--------|
--------------------|---------------------|
--------------------|---------------------|
--------------------|---------------------|
--------------------|---------------------|

Very End (Lead)
---------------------|------------------|-------------------|
--------------3h4h3--|------------------|-------------------|
---------------------|------------------|-------------------|
---------------------|------------------|--1----------------|
---------------------|------------------|--1----------------|
---------------------|------------------|--1----------------|
Comments