Thrice - The Abolition Of Man Chords & Tabs

 

The Abolition Of Man Chords & Tabs

Thrice Chords & Tabs

Version: 1 Type: Bass Tab 0 ratings
1 star 2 stars 3 stars 4 stars 5 stars
comments

The Abolition Of Man Bass Tab

Bass Enters At Pre Verse:

Pre Verse:  "We laugh at honor..."
F|------------------------|
C|------------------------|
G|------------------------|
C|0--0--0--0--0--0--0--0--|

Verse:  "Find knives..."
F|---------------------------------------------------------------------------|
C|------------------8p7------------------------------------------------------|
G|5-----8p7---5---------8p7h8-8-----7h8-----8h10---8---8p7-------------------|
C|--0-0-----0---0-0-------------0-0-----0-0------0---0------0h1-1-1-1-1-1-1--|
   
Verse Cont'd:
F|------------------------------------------|
C|------------------------------------------|
G|------------------------------------------|
C|0-0-0-0----0-0-0-0----0-0-0-0----0-0-0-0--|
[ Tab from: http://www.guitartabs.cc/tabs/t/thrice/the_abolition_of_man_btab.html ]
Verse Cont'd:
F|------------------------------------------------------------------------------------------|
C|------------------8p7---------------------------------------------------------------------|
G|5-----8p7---5---------8p7h8-8-----7h8-----8h10---10---10p8--8/10-10-10-10/12-12-12-12-----|
C|--0-0-----0---0-0-------------0-0-----0-0------0----0----------------------------------0--|


Chorus:  "Reason abandoned..."  (2x)
F|------------------|
C|------------------|
G|5>--0h3>----------|
C|---------/3>--5>--|

:REST:

Repeat Pre Verse

Repeat Verse

End of Verse: (Miss out the "0" on the 2nd Verse Cont'd) 
F|---------------------------------------------------------------------------------------|
C|---------------------------------------------------------------------------------------|
G|-8/10-10-10-10/12-12-12-12--8/10-10-10-10/12-12-12-12----------------------------------|
C|-------------------------------------------------------1--1--1--1--0~---0~---0~---0-0--|


Outro:
F|-------------------------------------------------------------------------------------------|
C|-------------------------------------------------------------------------------------------|
G|----------3>/5-5-5-5/7-7-7-7----------------3>/5-5-5-5/7-7-7-7-----------------------------|
C|--0>--1>----------------------1>---0>---1>---------------------1--1--1--1--1--1--1--1--0~--|
Comments