Thrice - T C Chords & Tabs

 

T C Chords & Tabs

Thrice Chords & Tabs

Version: 2 Type: Tab 0 ratings
1 star 2 stars 3 stars 4 stars 5 stars
comments

T C Tab

LEAD GUITAR PARTS

INTRO x2
e|--------------------------------------------------------------------------|
B|--------------------------------------------------------------------------|
G|------6-----4---------------------------6-----4---------------------------|
D|------------------7-----7-----6h7-------------------7-----7-----6---------|
A|--4-4---4-4---4-4---4-4---4-4-------4-4---4-4---4-4---4-4---4-4-----------|
E|--------------------------------------------------------------------------|
    x x   x x   x x   x x   x x       x x   x x   x x   x x   x x

e|--------------------------------------------------------------------------|
B|--------------------------------------------------------------------------|
G|------6-----4---------------------------6-----4---------------------------|
D|------------------7-----7-----6h7-------------------7-----7-----6---------|
A|--0-0---0-0---0-0---0-0---0-0-------0-0---0-0---0-0---0-0---0-0-----------|
E|--------------------------------------------------------------------------|
    x x   x x   x x   x x   x x       x x   x x   x x x x x x x x x  

INTRO #2 x2
e|--------------------------------------------------------------------------|
B|------5-----4---------------------------5-----4---------------------------|
G|------------------6-----6-----4h6-------------------6-----6-----4h6-------|
D|--------------------------------------------------------------------------|
A|--4-4---4-4---4-4---4-4---4-4-------4-4---4-4---4-4---4-4---4-4-----------|
E|--------------------------------------------------------------------------|
    x x   x x   x x   x x   x x       x x   x x   x x   x x   x x

e|--------------------------------------------------------------------------|
B|------5-----4---------------------------5-----4---------------------------|
G|------------------6-----6-----4h6-------------------6-----6-----4h6-------|
D|--------------------------------------------------------------------------|
A|--0-0---0-0---0-0---0-0---0-0-------0-0---0-0---0-0---0-0---0-0-----------|
E|--------------------------------------------------------------------------|
    x x   x x   x x   x x   x x       x x   x x   x x   x x   x x

RIFF #1 x8
e|--------------------------------------------------------------------------|
B|--------------------------------------------------------------------------|
G|--9--8-8-8-6-6-6-6--4-/-6-------------------------------------------------|
D|--------------------------------------------------------------------------|
A|--7--6-6-6-4-4-4-4--2-/-4-------------------------------------------------|
E|--------------------------------------------------------------------------|

VERSE x2
e|--------------------------------------------------------------------------|
B|------5-----4---------------------------5-----4---------------------------|
G|------------------6-----6-----4h6-------------------6-----6-----4h6-------|
D|--------------------------------------------------------------------------|
A|--4-4---4-4---4-4---4-4---4-4-------4-4---4-4---4-4---4-4---4-4-----------|
E|--------------------------------------------------------------------------|
    x x   x x   x x   x x   x x       x x   x x   x x   x x   x x

e|--------------------------------------------------------------------------|
B|------5-----4---------------------------5-----4---------------------------|
G|------------------6-----6-----4h6-------------------6-----6-----4h6-------|
D|--------------------------------------------------------------------------|
A|--0-0---0-0---0-0---0-0---0-0-------0-0---0-0---0-0---0-0---0-0-----------|
E|--------------------------------------------------------------------------|
    x x   x x   x x   x x   x x       x x   x x   x x   x x   x x

CHORUS RIFF #1 x2
e|--------------------------------------------------------------------------|
B|--------------------------------------------------------------------------|
G|--6-6-6--8--9-9-9-9-9-9-9-------------------------------------------------|
D|--6-6-6--8--9-9-9-9-9-9-9--7-7-7-7-7--9-9-9-9-9-9-9-9---------------------|
A|--4-4-4--6--7-7-7-7-7-7-7--7-7-7-7-7--9-9-9-9-9-9-9-9---------------------|
E|---------------------------5-5-5-5-5--7-7-7-7-7-7-7-7---------------------|

CHORUS RIFF #2 x2
e|--4-------4-------4-------------------------------------------------------|
B|----5--5----5--5----5--5-4------------------------------------------------|
G|------6-------6-------6---------------------------------------------------|
D|--------------------------------------------------------------------------|
A|--------------------------------------------------------------------------|
E|--------------------------------------------------------------------------|

RIFF #1 x5
e|--------------------------------------------------------------------------|
B|--------------------------------------------------------------------------|
G|--9--8-8-8-6-6-6-6--4-/-6-------------------------------------------------|
D|--------------------------------------------------------------------------|
A|--7--6-6-6-4-4-4-4--2-/-4-------------------------------------------------|
E|--------------------------------------------------------------------------|

RIFF #2 x1
e|--------------------------------------------------------------------------|
B|--------------------------------------------------------------------------|
G|--9--11-11-11-9-9-9-9--8-/-9--13-11-11-11-9-9-9-9--8-/-9------------------|
D|--------------------------------------------------------------------------|
A|--7--9--9--9--7-7-7-7--6-/-7--11-9--9--9--7-7-7-7--6-/-7------------------|
E|--------------------------------------------------------------------------|

RIFF #1 x1
e|--------------------------------------------------------------------------|
B|--------------------------------------------------------------------------|
G|--9--8-8-8-6-6-6-6--4-/-6-------------------------------------------------|
D|--------------------------------------------------------------------------|
A|--7--6-6-6-4-4-4-4--2-/-4-------------------------------------------------|
E|--------------------------------------------------------------------------|
[ Tab from: http://www.guitartabs.cc/tabs/t/thrice/t_c_tab_ver_2.html ]
VERSE x2
e|--------------------------------------------------------------------------|
B|------5-----4---------------------------5-----4---------------------------|
G|------------------6-----6-----4h6-------------------6-----6-----4h6-------|
D|--------------------------------------------------------------------------|
A|--4-4---4-4---4-4---4-4---4-4-------4-4---4-4---4-4---4-4---4-4-----------|
E|--------------------------------------------------------------------------|
    x x   x x   x x   x x   x x       x x   x x   x x   x x   x x

e|--------------------------------------------------------------------------|
B|------5-----4---------------------------5-----4---------------------------|
G|------------------6-----6-----4h6-------------------6-----6-----4h6-------|
D|--------------------------------------------------------------------------|
A|--0-0---0-0---0-0---0-0---0-0-------0-0---0-0---0-0---0-0---0-0-----------|
E|--------------------------------------------------------------------------|
    x x   x x   x x   x x   x x       x x   x x   x x   x x   x x

CHORUS RIFF #1 x2
e|--------------------------------------------------------------------------|
B|--------------------------------------------------------------------------|
G|--6-6-6--8--9-9-9-9-9-9-9-------------------------------------------------|
D|--6-6-6--8--9-9-9-9-9-9-9--7-7-7-7-7--9-9-9-9-9-9-9-9---------------------|
A|--4-4-4--6--7-7-7-7-7-7-7--7-7-7-7-7--9-9-9-9-9-9-9-9---------------------|
E|---------------------------5-5-5-5-5--7-7-7-7-7-7-7-7---------------------|

CHORUS RIFF #2 x2
e|--4-------4-------4-------------------------------------------------------|
B|----5--5----5--5----5--5-4------------------------------------------------|
G|------6-------6-------6---------------------------------------------------|
D|--------------------------------------------------------------------------|
A|--------------------------------------------------------------------------|
E|--------------------------------------------------------------------------|

SOLO
e|---------------------------------|----------------------------------------|
B|-5-4-5-4h5p4-4-5-7-5-4-5-4-------|----5-4-5--4h5p4------------------------|
G|---------------------------6-----|-----------------5-6-8------------------|
D|---------------------------------|----------------------------------------|
A|---------PLAY 3 TIMES------------|----------------------------------------|
E|---------------------------------|----------------------------------------|
    

e|-----------------4-------7------------------------------------------------|
B|-5-4-------4-5-7---7-5-4--------------------------------------------------|
G|-----6-4-6----------------------------------------------------------------|
D|--------------------------------------------------------------------------|
A|--------------------------------------------------------------------------|
E|--------------------------------------------------------------------------|
   x x x x x x x x   x x x

e|-11p9---12p9----11p9---12p9----11p9---12p9----11p9---12p9-----------------|
B|------9------9-------9------9-------9------9-------9----------------------|
G|--------------------------------------------------------------------------|
D|--------------------------------------------------------------------------|
A|--------------------------------------------------------------------------|
E|--------------------------------------------------------------------------|


e|---9-11-12-11-9-------------------------------9---9---9---9---------------|
B|-9--------------12-10-9h10p9----9-----9-------9---9---9---9-9-------------|
G|-----------------------------11---11b---11-11b-11b-11b-11b----11p9--------|
D|-------------------------------------------------------------------11-----|
A|--------------------------------------------------------------------------|
E|--------------------------------------------------------------------------|
                                                        

e|-16-12----------16-14-12-11-12-11-----------------------------------------|
B|-------14----14-------------------14-14-12----------12--------------------|
G|----------13-------------------------------14-13-14-----------------------|
D|--------------------------------------------------------------------------|
A|--------------------------------------------------------------------------|
E|--------------------------------------------------------------------------|


e|--------------------------------------------------------------------------|
B|-12h14p12-10h12p10-9h10p9-7h9p7-5h7p5-4h5p4-4-----------------------------|
G|--------------------------------------------------------------------------|
D|--------------------------------------------------------------------------|
A|--------------------------------------------------------------------------|
E|--------------------------------------------------------------------------|


e|-9h12p9------9h12p9------9h12p9------9h12p9------9h12p9-------------------|
B|--------9h12--------9h12--------9h12--------9h12--------9h12--------------|
G|--------------------------------------------------------------------------|
D|--------------------------------------------------------------------------|
A|--------------------------------------------------------------------------|
E|--------------------------------------------------------------------------|


e|-14b-12----12-------------------------------------------------------------|
B|--------14----14-12h14p12-10h12p10-9h10p9---------------------------------|
G|------------------------------------------9h11p9--------------------------|
D|-------------------------------------------------11-----------------------|
A|--------------------------------------------------------------------------|
E|--------------------------------------------------------------------------|


e|--------------------------------------------------------------------------|
B|--------------------------------------------------------------------------|
G|----------------9-11-9h11p9----9-9h11p9-----------------------------------|
D|-----------9-11-------------11---------11---------------------------------|
A|------9-11----------------------------------------------------------------|
E|-9-12---------------------------------------------------------------------|
   x x  x x  x x  x x

OUTRO x2
e|--------------------------------------------------4-|---------------------|
B|--------------------------------------------------4-|---------------------|
G|-6---------------------------6--------------------5-|-9/8-9/8-6~----------|
D|-6------7------9------6------6------7------9------6-|---------------------|
A|-4------7------9------6------4------7------9------6-|-7/6-7/6-4~----------|
E|--------5------7------4-------------5------7------4-|---------------------|
Comments