Thrice - Stare At The Sun Chords & Tabs

 

Stare At The Sun Chords & Tabs

Thrice Chords & Tabs

Version: 6 Type: Tab 0 ratings
1 star 2 stars 3 stars 4 stars 5 stars
comments

Stare At The Sun Tab

   
----------------------------------------------------------------------------
                         STARE AT THE SUN - Thrice
----------------------------------------------------------------------------

tabbed by:  Rick Thornburgh
email:  flik3@hotmail.com
drop C tuning (C G C F A d)


intro/verse
Gtr. 1 (swell effect)
d--------------------------|--------------------------|
A--------------------------|--------------------------|
F-7-----10-----5-----3-----|-7-----10-----5-----3-----|
C--------------------------|--------------------------|
G--------------------------|--------------------------|
C--------------------------|--------------------------|

Gtr. 2 (swell effect)
d--------------------------|--------------------------|
A-6-----10-----8-----6-----|-6-----10-----8-----5---6-|
F--------------------------|--------------------------|
C--------------------------|--------------------------|
G--------------------------|--------------------------|
C--------------------------|--------------------------|

chorus
Gtr. 1
d-------------------------------------------------------|
A-------------------------------------------------------|
F-------------------------------------------------------|
C-0--0-0--0-0--0-0--0-0--0-0-3--3-3--3-3--3-3--3-3--3-3-|
G-0--0-0--0-0--0-0--0-0--0-0-3--3-3--3-3--3-3--3-3--3-3-|
C-0--0-0--0-0--0-0--0-0--0-0-3--3-3--3-3--3-3--3-3--3-3-|
 "due     for..."
d-------------------------------------------------------|
A-------------------------------------------------------|
F-5--5-5--5-5--5-5--5-5--5-5-3--3-3--3-3--3-3--3-3--3-3-|
C-5--5-5--5-5--5-5--5-5--5-5-3--3-3--3-3--3-3--3-3--3-3-|
G-3--3-3--3-3--3-3--3-3--3-3-1--1-1--1-1--1-1--1-1--1-1-|
C-------------------------------------------------------|
 "waiting for..."

Gtr. 2
d-------------------------------------|
A-------------------------------------|
F-10---7-9---10---7-9---7---10---7-9--|
C----8-----7----8-----7---7----8------|
G-------------------------------------|
C-------------------------------------|

post chorus (both guitars)
d-------------------|
A-------------------|
F-----3---3---3-----|
C-----3---3---3-----|
G-----1---1---1-----|
C-------------------|
"'til I understand or go blind"

bridge
Gtr. 1
d-------------------------------------------------------|
A-------------------------------------------------------|
F-------------------------------------------------------|
C-5--5-5--5-5--5-5--5-5--5-5-8--8-8--8-8--8-8--8-8--8-8-|
G-5--5-5--5-5--5-5--5-5--5-5-8--8-8--8-8--8-8--8-8--8-8-|
C-5--5-5--5-5--5-5--5-5--5-5-8--8-8--8-8--8-8--8-8--8-8-|

d-------------------------------------------------------|
A-------------------------------------------------------|
F-------------------------------------------------------|
C-3--3-3--3-3--3-3--3-3--3-3-0--0-0--0-0--0-0--0-0--0-0-|
G-3--3-3--3-3--3-3--3-3--3-3-0--0-0--0-0--0-0--0-0--0-0-|
C-3--3-3--3-3--3-3--3-3--3-3-0--0-0--0-0--0-0--0-0--0-0-|

d-------------------------------------------------------|
A-------------------------------------------------------|
F-------------------------------------------------------|
C-5--5-5--5-5--5-5--5-5--5-5-8--8-8--8-8--8-8--8-8--8-8-|
G-5--5-5--5-5--5-5--5-5--5-5-8--8-8--8-8--8-8--8-8--8-8-|
C-5--5-5--5-5--5-5--5-5--5-5-8--8-8--8-8--8-8--8-8--8-8-|
[ Tab from: http://www.guitartabs.cc/tabs/t/thrice/stare_at_the_sun_tab_ver_6.html ]
d-------------------------------------------------------|
A-------------------------------------------------------|
F-------------------------------------------------------|
C-3--3-3--3-3--3-3--3-3--3-3-7--7-7--7-7--7-7--7-7--7-7-|
G-3--3-3--3-3--3-3--3-3--3-3-7--7-7--7-7--7-7--7-7--7-7-|
C-3--3-3--3-3--3-3--3-3--3-3-7--7-7--7-7--7-7--7-7--7-7-|

Gtr. 2
d------------------------------------------------------------------------|
A-6-6-6-8-8-8-10-10-10---------------6-6-6-8-8-8-11-11-11----------------|
F----------------------7-7-7-7-7-7-7----------------------7-7-7-7-7-7-7--|
C------------------------------------------------------------------------|
G------------------------------------------------------------------------|
C------------------------------------------------------------------------|

d------------------------------------------------11-11-11----------------|
A-6-6-6-8-8-8-10-10-10---------------6-6-6-8-8-8----------7-7-7-7-7-7-7--|
F----------------------7-7-7-7-7-7-7-------------------------------------|
C------------------------------------------------------------------------|
G------------------------------------------------------------------------|
C------------------------------------------------------------------------|

bridge part 2 (vocals)
Gtr. 1
d-------------------------------------------------------|
A-------------------------------------------------------|
F-------------------------------------------------------|
C-5--5-5--5-5--5-5--5-5--5-5-8--8-8--8-8--8-8--8-8--8-8-|
G-5--5-5--5-5--5-5--5-5--5-5-8--8-8--8-8--8-8--8-8--8-8-|
C-5--5-5--5-5--5-5--5-5--5-5-8--8-8--8-8--8-8--8-8--8-8-|
"I know..."               "a shrine..."
d-------------------------------------------------------|
A-------------------------------------------------------|
F-------------------------------------------------------|
C-3--3-3--3-3--3-3--3-3--3-3-0--0-0--0-0--0-0--0-0--0-0-|
G-3--3-3--3-3--3-3--3-3--3-3-0--0-0--0-0--0-0--0-0--0-0-|
C-3--3-3--3-3--3-3--3-3--3-3-0--0-0--0-0--0-0--0-0--0-0-|
"A scar..."            "A mirror..."
d-------------------------------------------------------|
A-------------------------------------------------------|
F-------------------------------------------------------|
C-5--5-5--5-5--5-5--5-5--5-5-8--8-8--8-8--8-8--8-8--8-8-|
G-5--5-5--5-5--5-5--5-5--5-5-8--8-8--8-8--8-8--8-8--8-8-|
C-5--5-5--5-5--5-5--5-5--5-5-8--8-8--8-8--8-8--8-8--8-8-|
"but     I     can't         help..."

d----------|
A----------|
F----------|
C-8--------|
G-8--------| (hold this out for the rest of the measure)
C-8--------|
"feeling like I'm..."

Gtr. 2
d------------------------------------------------------------------------|
A-6-6-6-8-8-8-10-10-10---------------6-6-6-8-8-8-11-11-11----------------|
F----------------------7-7-7-7-7-7-7----------------------7-7-7-7-7-7-7--|
C------------------------------------------------------------------------|
G------------------------------------------------------------------------|
C------------------------------------------------------------------------|

d------------------------------------------------11~-~-~-~-~-~-~-~-~-~---|
A-6-6-6-8-8-8-10-10-10---------------6-6-6-8-8-8-------------------------|
F----------------------7-7-7-7-7-7-7-------------------------------------|
C------------------------------------------------------------------------|
G------------------------------------------------------------------------|
C------------------------------------------------------------------------|

d-17-17-17----------15-15-15-13-13-13--------------|
A----------15-15-15-------------------13-13--------| 3x
F-------------------------------------------14-14--|
C--------------------------------------------------|
G--------------------------------------------------|
C--------------------------------------------------|

There's all the parts you need to know.
Comments