Thrice - Stare At The Sun Chords & Tabs

 

Stare At The Sun Chords & Tabs

Thrice Chords & Tabs

Version: 5 Type: Tab 0 ratings
1 star 2 stars 3 stars 4 stars 5 stars
comments

Stare At The Sun Tab

Guitar 1:
Intro: (has volume swells)
D-------------------------------------------------------------------|
A-------------------------------------------------------------------|
F--10~----14~---12~----10~--------10~----14~----12~---9~/10~--------|
C-------------------------------------------------------------------|
G-------------------------------------------------------------------|
C-------------------------------------------------------------------|

Verse:
D-------------------------------------------------------------------|
A-------------------------------------------------------------------|
F--10~----14~----12~---10~/9~------10~----14~----12~----9~/10~------|
C-------------------------------------------------------------------|
G-------------------------------------------------------------------|
C-------------------------------------------------------------------|

Chorus: (figure out the strumming)
D-------------------------------------------------------------|
A-------------------------------------------------------------|
F----------5>----3>------------5>---3>---3~-------------------|
C--0>--3>--5>----3>---0>---3>--5>---3>---3~-------------------|
G--0>--3>--3>----1>---0>---3>--3>---1>---1~-------------------|
C--0>--3>-------------0>---3>---------------------------------|

Bridge:
D-------------------------------------------|
A-------------------------------------------|
F---10~--14~--12~--9~/10~-------------------|
C-------------------------------------------|
G-------------------------------------------|
C-------------------------------------------|

Repeat Verse

Repeat Chorus

Bridge:(figure out the strumming)
D------------------------------------------------------|
A------------------------------------------------------|
F------------------------------------------------------|
C--5>---8>---3>---0>---5>---8>---3>--7>----------------|
G--5>---8>---3>---0>---5>---8>---3>--7>----------------|
C--5>---8>---3>---0>---5>---8>---3>--7>----------------|

Bridge cont'd:(figue out the strumming)
D-------------------------------------------------|
A-------------------------------------------------|
F-------------------------------------------------|
C---5>---8>---3>---0>---5>---8>---8>--------------|
G---5>---8>---3>---0>---5>---8>---8>--------------|
C---5>---8>---3>---0>---5>---8>---8>--------------|

REpeat chorus 4x then the last two chords are clean and ring out

Guitar 2:
[ Tab from: http://www.guitartabs.cc/tabs/t/thrice/stare_at_the_sun_tab_ver_5.html ]
Intro/Verse:  (with volume swells)
D-------------------------|
A-------------------------|
F-7~---10~----5~----3~----|
C-------------------------|(4x)
G-------------------------|
C-------------------------|

Chorus:
D---------------------------------------|
A---------------------------------------|
F-10---7-9---10---7-9-------10---7-9----|
C---7-----0----7-----0--------7---------|
G----------------------7-0--------------|
C---------------------------------------|

Repeat Intro/Verse

Bridge:  (Repeat alot)
D-------------5-5-5-----------------------------6-6-6-----------------------|
A-6-6-6-8-8-8-----------------------6-6-6-8-8-8-----------------------6-6-6-|
F------------------7-7-7-7-7-7-7-7-------------------7-7-7-7-7-7-7-7--------|
C---------------------------------------------------------------------------|
G---------------------------------------------------------------------------|
C---------------------------------------------------------------------------|

Bridge Cont'd:
D-------5-5-5-----------------------------10-10-10-------10-10-10-10-------|
A-8-8-8-----------------------6-6-6-8-8-8----------------------------------|
F-------------7-7-7-7-7-7-7-7----------------------7-7-7-------------------|
C--------------------------------------------------------------------------|
G--------------------------------------------------------------------------|
C--------------------------------------------------------------------------|

Bridge Cont'd:
D-17-17-17----------15-15-15-13-13-13-------------17-17-17----------13-13-13-|
A---------15-15-15-------------------15-15-13-13----------15-15-15-----------|
F----------------------------------------------------------------------------|
C----------------------------------------------------------------------------|
G----------------------------------------------------------------------------|
C----------------------------------------------------------------------------|

Bridge Cont'd:
D----------------------17-17-17----------15-15-15---------------------------|
A-15-15-15-13-13-11-11----------15-15-15----------15-15-15-13-13-11-11------|
F---------------------------------------------------------------------------|
C---------------------------------------------------------------------------|
G---------------------------------------------------------------------------|
C---------------------------------------------------------------------------|

Repeat Chorus

End On:
D---------|
A---------|
F--10~----|
C---------|
G---------|
C---------|
Comments