Thrice - Stare At The Sun Chords & Tabs

 

Stare At The Sun Chords & Tabs

Thrice Chords & Tabs

Version: 4 Type: Tab 0 ratings
1 star 2 stars 3 stars 4 stars 5 stars
comments

Stare At The Sun Tab

Thrice
"Stare at the Sun"

Tuning: Drop C

Riff 1       Riff 2
|-----------|----------------------------------|
|-4-8-6-3-4-|----------------------------------|
|-5-8-3-1-1-|----------------------------------|
|-----------|----------------------------------|
|-----------|-55555555888888883333333300000000-|
|-----------|-55555555888888883333333300000000-|

[ Tab from: http://www.guitartabs.cc/tabs/t/thrice/stare_at_the_sun_tab_ver_4.html ]
Riff 3                              Riff 4
|----------------------------------|-----3-------3---|
|----------------------------------|-4-6-----4-6-----|
|-8-0-7-0-8-10-8-0-7-0-5-0-7-8-7-0-|-------5-------5-|
|----------------------------------|-----------------|
|----------------------------------|-----------------|
|----------------------------------|-----------------|

Please send me a message if there's anything wrong with this tab.
Tabbed By:  Brian LaMarre - S3xy L3m0n
Comments