Thrice - Stare At The Sun Chords & Tabs

 

Stare At The Sun Chords & Tabs

Thrice Chords & Tabs

Version: 2 Type: Tab 0 ratings
1 star 2 stars 3 stars 4 stars 5 stars
comments

Stare At The Sun Tab

   
-------------------------------------------------------------------------------
		      Stare At the Sun  - Thrice
-------------------------------------------------------------------------------
Tabbed by:Eric Pihl	
Email:
[ Tab from: http://www.guitartabs.cc/tabs/t/thrice/stare_at_the_sun_tab_ver_2.html ]
Tuning:
Intro/verse- 5 times
e|1~--------5~--------3~---------1~------------------------------------------|
B|---------------------------------------------------------------------------|
G|---------------------------------------------------------------------------|
D|---------------------------------------------------------------------------|
A|---------------------------------------------------------------------------|
E|---------------------------------------------------------------------------|
chorus- 2 times
e|---------------------------------------------------------------------------|
B|---------------------------------------------------------------------------|
G|----------------5555555533333333-------------------------------------------|
D|00000000333333335555555533333333-------------------------------------------|
A|00000000333333333333333311111111-------------------------------------------|
E|0000000033333333-----------------------------------------------------------|
Verse- 3 times
e|1~-------5~--------3~---------1~-------------------------------------------|
B|---------------------------------------------------------------------------|
G|---------------------------------------------------------------------------|
D|---------------------------------------------------------------------------|
A|---------------------------------------------------------------------------|
E|---------------------------------------------------------------------------|
Chorus- 2 times
e|---------------------------------------------------------------------------|
B|---------------------------------------------------------------------------|
G|----------------5555555533333333-------------------------------------------|
D|00000000333333335555555533333333-------------------------------------------|
A|00000000333333333333333311111111-------------------------------------------|
E|0000000033333333-----------------------------------------------------------|
Figure out the strumming and you'll be fine
e|---------------------------------------------------------------------------|
B|---------------------------------------------------------------------------|
G|---------------------------------------------------------------------------|
D|5----8----3----0----5----8----3----7---------------------------------------|
A|5----8----3----0----5----8----3----7---------------------------------------|
E|5----8----3----0----5----8----3----7---------------------------------------|
Then there's the chorus again.
At the end is clean
e|---------------------------------------------------------------------------|
B|---------------------------------------------------------------------------|
G|--------------5~-----3~----------------------------------------------------|
D|0~-----3~-----5~-----3~----------------------------------------------------|
A|0~-----3~-----3~-----1~----------------------------------------------------|
E|0~-----3~------------------------------------------------------------------|


| /  slide up
| \  slide down
| h  hammer-on
| p  pull-off
| ~  vibrato
| +  harmonic
| x  Mute note
===============================================================================
Comments