Thrice - Stare At The Sun Chords & Tabs

 

Stare At The Sun Chords & Tabs

Thrice Chords & Tabs

Version: 1 Type: Tab 3 ratings
1 star 2 stars 3 stars 4 stars 5 stars
comments

Stare At The Sun Tab

   
Artist: Thrice

Title: Stare at the sun 


gui.1 tuning: e B G D A e
gui.2 tuning: D A F C G C

guitar1 starts the song. I think the effect used is a 'slow attack' effect.

INTRO / VERSE :

e|----------------------------------------------------------------|
B|----------------------------------------------------------------|
G|-8-----12----10---8----8-----12----10---7h8---------------------|
D|-10----13----8----6----10----13----8----6-----------------------|
A|----------------------------------------------------------------|
E|----------------------------------------------------------------|

e|----------------------------------------------------------------|
B|----------------------------------------------------------------|
G|-8-----12----10---8p7----8-----12----10---7h8-------------------|
D|-10----13----8----6------10----13----8----6---------------------|
A|----------------------------------------------------------------|
E|----------------------------------------------------------------|


CHORUS:

guitar 1:

e|---------------------------------|
B|---------------------------------|
G|-8-0-5-7-0-8-0-5-7-0-3-0-8-0-5-7-|
D|---------------------------------|
A|---------------------------------|
E|---------------------------------|

(repeat this riff 7 times)

guitar 2:

d|---------------------|
A|---------------------|
F|-----------5----3----|
C|-0----3----5----3----|
G|-0----3----3----1----|
C|-0----3--------------|

these are the chords played. Listen to song for strumming pattern and timing 
(pretty easy).  


MIDDLE:

guitar1.

play this riff 3 times
[ Tab from: http://www.guitartabs.cc/tabs/t/thrice/stare_at_the_sun_tab.html ]
e|------------------------------------------------------------------------------------|
B|----------------8-8-8-------------------------------------9-9-9---------------------|
G|-8-8-8-10-10-10----------------------------8-8-8-10-10-10---------------------------|
D|----------------------10-10-10-10-10-10-10----------------------10-10-10-10-10-10-10|
A|------------------------------------------------------------------------------------|
E|------------------------------------------------------------------------------------|

e|----------------------------------------------------------8-8-8---------------------|
B|----------------8-8-8---------------------------------------------------------------|
G|-8-8-8-10-10-10----------------------------8-8-8-10-10-10---------------------------|
D|----------------------10-10-10-10-10-10-10----------------------10-10-10-10-10-10-10|
A|------------------------------------------------------------------------------------|
E|------------------------------------------------------------------------------------|

 then this 3 times:

e|-15-15-15----------13-13-13----------------------|
B|----------13-13-13----------16-16-16-------------|
G|-------------------------------------15-15-15-15-|
D|-------------------------------------------------|
A|-------------------------------------------------|
E|-------------------------------------------------|


guitar 2:

d|------------------------------------------------------------------------|
A|------------------------------------------------------------------------|
F|------------------------------------------------------------------------|
C|-5---8----3---0----5----8----3----7----5----8----3----0----5----8-------|
G|-5---8----3---0----5----8----3----7----5----8----3----0----5----8-------|
C|-5---8----3---0----5----8----3----7----5----8----3----0----5----8-------|

Again, these are just the chords used, the strumming pattern is pretty constant
ups and downs. Listen to the song for the timing.

Now repeat chorus as before and you're done!



tabbed by >
Comments