Thrice - Stare At The Sun Chords & Tabs

 

Stare At The Sun Chords & Tabs

Thrice Chords & Tabs

Version: 2 Type: Bass Tab 0 ratings
1 star 2 stars 3 stars 4 stars 5 stars
comments

Stare At The Sun Bass Tab

Stare At The Sun
By: Thrice
Tabbed By: Erica 
Email: coreys_punk_baby_girl@hotmail.com

Intro
F|---------------------------------------------------------------|
C|---------------------------------------------------------------|
G|---------------------------------------------------------------|
C|-0-0-0-0----0-0----0-0----0-0----3-3-3-3----3-3----3-3----3-3--|

F|---------------------------------------------------------------|
C|---------------------------------------------------------------|
G|-3-3-3-3----3-3----3-3----3-3----1-1-1-1----1-1----1-1----1-1--|
C|---------------------------------------------------------------|

Verse
F|-10---7-9---10---7-9--------10---7-9---10---7-9----------------|
C|----8-----8----8-----7-0-------8-----8----8-----7-0------------|
G|---------------------------------------------------------------|
C|---------------------------------------------------------------|

F|-10---7-9---10---7-9--------10---7-9---10---7-9----------------|
C|----8-----8----8-----7-0-------8-----8----8-----7-0------------|
G|---------------------------------------------------------------|
C|---------------------------------------------------------------|

F|-10---7-9---10---7-9--------10---7-9---10---7-9----------------|
C|----8-----8----8-----7-0-------8-----8----8-----7-0------------|
G|---------------------------------------------------------------|
C|---------------------------------------------------------------|

F|-10---7-9---10---7-9--------10---7-9---10---7-9----------------|
C|----8-----8----8-----7-0-------8-----8----8-----7-0------------|
G|---------------------------------------------------------------|
C|---------------------------------------------------------------|

Chorus (2x)
F|---------------------------------------------------------------|
C|---------------------------------------------------------------|
G|---------------------------------------------------------------|
C|-0-0-0-0----0-0----0-0----0-0----3-3-3-3----3-3----3-3----3-3--|

F|---------------------------------------------------------------|
C|---------------------------------------------------------------|
G|-3-3-3-3----3-3----3-3----3-3----1-1-1-1----1-1----1-1----1-1--|
C|---------------------------------------------------------------|
 
End Chorus
F|---------------------------------------------------------------|
C|---------------------------------------------------------------|
G|-1--1--1-------------------------------------------------------|
C|---------------------------------------------------------------|

Verse
F|-10---7-9---10---7-9--------10---7-9---10---7-9----------------|
C|----8-----8----8-----7-0-------8-----8----8-----7-0------------|
G|---------------------------------------------------------------|
C|---------------------------------------------------------------|

F|-10---7-9---10---7-9--------10---7-9---10---7-9----------------|
C|----8-----8----8-----7-0-------8-----8----8-----7-0------------|
G|---------------------------------------------------------------|
C|---------------------------------------------------------------|

F|-10---7-9---10---7-9--------10---7-9---10---7-9----------------|
C|----8-----8----8-----7-0-------8-----8----8-----7-0------------|
G|---------------------------------------------------------------|
C|---------------------------------------------------------------|

F|-10---7-9---10---7-9--------10---7-9---10---7-9----------------|
C|----8-----8----8-----7-0-------8-----8----8-----7-0------------|
G|---------------------------------------------------------------|
C|---------------------------------------------------------------|
[ Tab from: http://www.guitartabs.cc/tabs/t/thrice/stare_at_the_sun_btab_ver_2.html ]
Chorus (2x)
F|---------------------------------------------------------------|
C|---------------------------------------------------------------|
G|---------------------------------------------------------------|
C|-0-0-0-0----0-0----0-0----0-0----3-3-3-3----3-3----3-3----3-3--|

F|---------------------------------------------------------------|
C|---------------------------------------------------------------|
G|-3-3-3-3----3-3----3-3----3-3----1-1-1-1----1-1----1-1----1-1--|
C|---------------------------------------------------------------|

F|---------------------------------------------------------------|
C|---------------------------------------------------------------|
G|-1--1--1-------------------------------------------------------|
C|---------------------------------------------------------------|

Bridge (Part 1)
F|---------------------------------------------------------------|
C|---------------------------------------------------------------|
G|---------------------------------------------------------------|
C|-5-5-5-5--5-5-5--5-5-5--5-5-5--8-8-8-8--8-8-8--8-8-8--8-8-8----|

F|---------------------------------------------------------------|
C|---------------------------------------------------------------|
G|---------------------------------------------------------------|
C|-3-3-3-3--3-3-3--3-3-3--3-3-3--0-0-0-0--0-0-0--0-0-0--0-0-0-12\|

Bridge (Part 2)

F|---------------------------------------------------------------|
C|---------------------------------------------------------------|
G|---------------------------------------------------------------|
C|-5-5-5-5--5-5-5--5-5-5--5-5-5--8-8-8-8--8-8-8--8-8-8--8-8-8----|

F|---------------------------------------------------------------|
C|---------------------------------------------------------------|
G|---------------------------------------------------------------|
C|-3-3-3-3--3-3-3--3-3-3--3-3-3--7-7-7-7--7-7-7--7-7-7--7-7-7----|

Bridge (Part 1)
F|---------------------------------------------------------------|
C|---------------------------------------------------------------|
G|---------------------------------------------------------------|
C|-5-5-5-5--5-5-5--5-5-5--5-5-5--8-8-8-8--8-8-8--8-8-8--8-8-8----|

F|---------------------------------------------------------------|
C|---------------------------------------------------------------|
G|---------------------------------------------------------------|
C|-3-3-3-3--3-3-3--3-3-3--3-3-3--0-0-0-0--0-0-0--0-0-0--0-0-0-12\|

Bridge (Part 3)

F|---------------------------------------------------------------|
C|---------------------------------------------------------------|
G|---------------------------------------------------------------|
C|-5-5-5-5--5-5-5--5-5-5--5-5-5--8-8-8-8--8-8-8--8-8-8--8-8-8----|

F|---------------------------------------------------------------|
C|---------------------------------------------------------------|
G|---------------------------------------------------------------|
C|-8-8-8-8--8-8-8--8-8-8--8-8-8----------------------------------|

Chorus (3X)

F|---------------------------------------------------------------|
C|---------------------------------------------------------------|
G|---------------------------------------------------------------|
C|-0-0-0-0----0-0----0-0----0-0----3-3-3-3----3-3----3-3----3-3--|

F|---------------------------------------------------------------|
C|---------------------------------------------------------------|
G|-3-3-3-3----3-3----3-3----3-3----1-1-1-1----1-1----1-1----1-1--|
C|---------------------------------------------------------------|

End
F|---------------------------------------------------------------|
C|---------------------------------------------------------------|
G|-1~------------------------------------------------------------|
C|---------------------------------------------------------------|
Comments