Thrice - Stare At The Sun Chords & Tabs

 

Stare At The Sun Chords & Tabs

Thrice Chords & Tabs

Version: 1 Type: Bass Tab 0 ratings
1 star 2 stars 3 stars 4 stars 5 stars
comments

Stare At The Sun Bass Tab

   
Artist: Thrice

Song: Stare at the sun 


Intro:

F|-------------------------------------------|
C|-------------------------------------------|
G|------------------------3-3-3-3----1-1-1-1-|
C|-0-0-0-0----3-3-3-3------------------------|

Verse:

repeat this riff over the verse 

F|---------------------------------|
C|---------------------------------|
G|-8-0-5-7-0-8-0-5-7-0-3-0-8-0-5-7-|
C|---------------------------------|

Chorus:

repeat this for the chorus

F|-------------------------------------------|
C|-------------------------------------------|
G|-5-5-5-5----8-8-8-8-----3-3-3-3----1-1-1-1-|
C|-------------------------------------------| 


Middle:
[ Tab from: http://www.guitartabs.cc/tabs/t/thrice/stare_at_the_sun_btab.html ]
F|-------------------------------------------------------------------------------------|
C|-------------------------------------------------------------------------------------|
G|-------------------------------------------------------------------------------------|
C|-5-5-5-5----8-8-8-8----3-3-3-3----0-0-0-0----5-5-5-5----8-8-8-8----3-3-3-3----7-7-7-7|

F|-------------------------------------------------------------------------------------|
C|-------------------------------------------------------------------------------------|
G|-------------------------------------------------------------------------------------|
C|-5-5-5-5----8-8-8-8----3-3-3-3----0-0-0-0----5-5-5-5----8-8-8-8-8-8-8-8-8-8-8-8-8-8-8|

back to the chorus and thats it.

tabbed by Carter
Comments