Thrice - So Strange I Rember You Chords & Tabs

 

So Strange I Rember You Chords & Tabs

Thrice Chords & Tabs

Version: 1 Type: Bass Tab 0 ratings
1 star 2 stars 3 stars 4 stars 5 stars
comments

So Strange I Rember You Bass Tab

   
------------------------------------------------------------------------------
So Strange I Remember You: Thrice
-------------------------------------------------------------------------------

Tabbed By : Jordan MacDowall
e-mail: if any problems or missed a few notes email me and let me know...
brokenforlife@skateboard.com


Tuning:EADG its a five string but these are the notes on the 4 string

verse 1 : figure out the rhythm

G|--------------------------------------------------------------------------|
D|--------------------------------------------------------------------------|
A|-444444444----------------33333--------444444444----666666----33333-------|
E|----------------111111----------------------------------------------------|

G|--------------------------------------------------------------------------|
D|--------------------------------------------------------------------------|
A|--444444444------------33333------------------------44444-----------------|
E|-------------111111----------------66666---44444-----------11111111-------|

G|---------------------------------------------------------------------------|
D|---------------------------------------------------------------------------|
A|-444444444-- 4444444----------------------1----------1---------4----4----4-|
E|-----------------------------11 11-----------1111------11------------------|

G|--------------------------------------------------------------------------|
D|--------------------------------------------------------------------------|
A|------------------------------44444444444---------------------------------|
E|-444444444444---111111111111--------------------------11111111------------|

Chorus: listen too how many times its played
[ Tab from: http://www.guitartabs.cc/tabs/t/thrice/so_strange_i_rember_you_btab.html ]
G|--------------------------------------------------------------------------|
D|--------------------------------------------------------------------------|
A|-444444444-----66666666------44444444-----66666666-----repeat few times---|
E|--------------------------------------------------------------------------|

bridge

G|---------------------------------------------------------------------------|
D|-----------------------------------------------------------------77-66-----|
A|-4444-4444-4444-4444---11 --11- 2x--2222-2222 1x------4444-----------------|
E|---------------------------------------------------2222------222-------4---|

guitar then bass and drums

G|--------------------------------------------------------------------------|
D|--------------------------------------------------------------------------|
A|-4444---------66666-------77777----99999-repeat 4x------------------------|
E|---------------------------------------------------11111------------------|

G|---------------------------------------------------------------------------|
D|--------------------------------breakdown...-------------------------------|
A|-44444--66666----------333-1x-----------44444---66666---4-6----------------|
E|---------------444---------------11111-----------------------repeat 1x-----|

G|--------------------------------------------------------------------------|
D|--------------------------------------------------------------------------|
A|------------44444---66666-----77777777------------------------------------|
E|-11111------------------------------------0000 1--------------------------|


| /  slide up
| \  slide down
| h  hammer-on
| p  pull-off
| ~  vibrato
| +  harmonic
| x  Mute note
===============================================================================verse  1x
   chorus 1x
   bridge 1x
Comments