Thrice - Silhouette Chords & Tabs

 

Silhouette Chords & Tabs

Thrice Chords & Tabs

Version: 2 Type: Bass Tab 0 ratings
1 star 2 stars 3 stars 4 stars 5 stars
comments

Silhouette Bass Tab

|-------------------------------------------------------------------|
|-------------------------------------------------------------------|
|-------------------------------------------------------------------|
|-------------------------------------------------------------------|
|-0-0-0---0-0-0---10-10-10---0-0-0---0-0-0---10-10-10---8-8-8---8-8-|


|-------------------------------------------------------------------|
|-------------------------------------------------------------------|
|-------------------------------------------------------------------|
|-------------------------------------------------------------------|
|8---10-10-10---8-8-8---8-8-8---10-10-10----------------------------|

Then the intro starts over as the verse^^^^

I couldnt get the bridge but here is the chorus

[ Tab from: http://www.guitartabs.cc/tabs/t/thrice/silhouette_btab_ver_2.html ]
|-------------------------------------------------------------------|
|-------------------------------------------------------------------|
|-------------------------------------------------------------------|
|------------------------3---5--------------------------------------|
|-12---0---10---11---0---3---5---0---11---0---11--------------------|

Then the chorus repeats until it is done 

Then the bridge out is 


|-------------------------------------------------------------------|
|-------------------------------------------------------------------|
|-------------------------------------------------------------------|
|-------------------------------------------------------------------|
|-8-8-8---8-8-8---10-10-10---8-8-8---8-8-8---10-10-10---------------|


Then after that ends it goes back to the verse for a little

Then to the bridge in

Then the chorus

The after that chorus the bridge out is 


|-------------------------------------------------------------------|
|-------------------------------------------------------------------|
|-------------------------------------------------------------------|
|-------------------------------------------------------------------|
|-0-0-0-0-0-0---8-8-8-8-8-8-----------------------------------------|

I dont know if that is the right amout but it is close

I hope you enjoy!!!!!!!
Comments