Thrice - See You In The Shallows Chords & Tabs

 

See You In The Shallows Chords & Tabs

Thrice Chords & Tabs

Version: 1 Type: Bass Tab 0 ratings
1 star 2 stars 3 stars 4 stars 5 stars
comments

See You In The Shallows Bass Tab

   
   INTRO
Gb|-------------------------------------------------------------------------------|
Db|-------------------------------------------------------------------------------|
Ab|----------------------------33333333111111333333335555555333333331111113333333-|
Db|-0~~~~~~~~~-0x-------0000000---------------------------------------------------|

   1ST VERSE
Gb|----|----------------------------------------------------------------------|
Db|----|----------------------------------------------------------------------|
Ab|----|-----------------00000000000000001111111111111111---------------------|
Db|-0x-|-0000000000000000-----------------------------------------------------|

   1ST VERSE (Continued)
Gb|---------------------------------------------------------------------------|
Db|-3333333333333333----------------------------------------------------------|
Ab|---------------------------------0000000000000000111111111111111-----------|
Db|-----------------0000000000000000------------------------------------------|
   
   CHORUS
Gb|---------------------------------------------------------------------------|
Db|---------------------------------------------------------------------------|
Ab|----------------1-1-111---------------3-33-333-1-1-100---------------------|
Db|1-1-111-4-4-4444-------3-3-4-3-1-1-111----------------4-4-444--------------|

   CHORUS (CONTINUED)
Gb|---------------------------------------------------------------------------|
Db|---------------------------------------------------------------------------|
Ab|----------------1-1-111----------------3-33-333-0000100--------------------|
Db|-1-1-111-4-4-444-------3-3-4-3-1-1-1111----------------4~------------------|

   2ND VERSE
Gb|---------------------------------------------------------------------------|
Db|---------------------------------------------------------------------------|
Ab|-1-1X-----------------0-0-0-0-0-0-0-0-1-1-1-1-1-1-1-1----------------------|
Db|------0-0-0-0-0-0-0-0------------------------------------------------------|
[ Tab from: http://www.guitartabs.cc/tabs/t/thrice/see_you_in_the_shallows_btab.html ]
   2ND VERSE (CONTINUED)
Gb|---------------------------------------------------------------------------|
Db|---------------------------------------------------------------------------|
Ab|-1-1X--13-----------------00000000000000001111111111111111-----------------|
Db|----------0000000000000000-------------------------------------------------|
   
   BRIDGE ( AFTER 2ND VERSE )
Gb|---------------------------------------------------------------------------|
Db|---------------------------------------------------------------------------|
Ab|-3-3-333-3-33-333-5-5-555-1-11-111-3-33-333-3-33-333--5-55-555-1-11-111----|
Db|---------------------------------------------------------------------------|

Gb|----------------------------------------------------------------------------|
Db|----------------------------------------------------------------------------|
Ab|-0-00-000-0-00-000-5-55-555-3-33-333-1-11-111-1-11-111-1-11-11-1-11-111-5X/-|
Db|----------------------------------------------------------------------------|
   
   BRIDGE ( DONT PLAY UNTIL FULL BAND COMES IN )
Gb|---------------------------------------------------------------------------|
Db|---------------------------------------------------------------------------|
Ab|---------------------------------------------------------------------------|
Db|-0~-0~-0-00-0-00-0000-0X---------------------------------------------------|
          ^ PLAY THIS PART REALLY FAST 
   
   ENDING CHORUS
Gb|---------------------------------------------------------------------------|
Db|---------------------------------------------------------------------------|
Ab|-2-2-222-0-00-000----------------2-2-222-0-00-000--------------------------|
Db|-----------------6-6-666-0-00-000----------------7-7-777-6-66-6666---------|

Gb|---------------------------------------------------------------------------|
Db|---------------------------------------------------------------------------|
Ab|-2-2-222-0-00-000-----------------2-2-222-0-0-000--------------------------|
Db|-----------------6-6-666-0-00-0000---------------6-66-66-66666666----------|

Gb|---------------------------------------------------------------------------|
Db|---------------------------------------------------------------------------|
Ab|-2-2-222-0-00-000----------------2-2-222-0-0-000---------------------------|
Db|-----------------6-6-666-0-00-000---------------7-7-777-6-66-666-----------|

Gb|---------------------------------------------------------------------------|
Db|---------------------------------------------------------------------------|
Ab|-2-2-222-0-00-000------------------2-2-22-0-00-0000-4P2-20-----------------|
Db|-----------------6-6-666-0-00-0000------------------------6~---------------|
Comments