Thrice - Paper Tigers Chords & Tabs

 

Paper Tigers Chords & Tabs

Thrice Chords & Tabs

Version: 2 Type: Tab 0 ratings
1 star 2 stars 3 stars 4 stars 5 stars
comments

Paper Tigers Tab

   
 "Paper Tigers"- Thrice
 Tuning     C G C F A D
 Just put these parts where they go... i will call them acts.
   
 Intro                  act 1           act 2             act 3
|-------------------|---------------|--------------|-------------------|
|-------------------|---------------|--------------|--------5h6p5------|
|-------------------|---------------|--------------|----7---------7----|
|-------------------|---------------|--7-0---------|--7---7---------7--|
|--8-0-8-0-8-0-8-0--|---------------|-------3-5h6--|-------------------|
|-------------------|--00-00-00-0-0-|--------------|-------------------|
                          **    * *  

 i guess chorus
|--------------|-----------|
|--------------|-----------|
|--14--12--10--|--7--5--3--|
|---x---x---x--|--7--5--3--|
|--12--10---8--|--5--3--1--|
|--------------|-----------|
[ Tab from: http://www.guitartabs.cc/tabs/t/thrice/paper_tigers_tab_ver_2.html ]
  extended intro
|-------------------------------------------|
|-------------------------------------------|
|-------------------------------------------|
|-------------------------------------------|
|--8-0-8-0-8-0-8-0--10-0-10-0-10-0-10--12/--|
|-------------------------------------------|

  act 4 (add to act 3)
|-------------------------|
|-----------8h10p8--------|
|-----10------------10----|
|--10----10------------10-|
|-------------------------|
|-------------------------|

interlude thing
|------|
|------|
|------|
|--0~--|
|--0~--|
|--0~--|


 "We light the walls on fire..."   BRIDGE            act 5
|-----------------------------|-----------------|-------------------|
|-----------------------------|-----------------|-------------------|
|-----------------------------|-----------------|-------------------|
|--3----2---3----5------------|--3---2---3---0--|-------------------|
|-------------------0-0-00-0--|-----------------|--------3h5p3------|
|----00---0----0----0-0-00-0--|---00---0---0----|--0-3-5-------5-0--|
     **   *    *    *   **    

play bridge again and add act 3&4 together
it sounds right 

Have a good one
...Mark Davidson...
Comments