Thrice - Paper Tigers Chords & Tabs

 

Paper Tigers Chords & Tabs

Thrice Chords & Tabs

Version: 1 Type: Bass Tab 0 ratings
1 star 2 stars 3 stars 4 stars 5 stars
comments

Paper Tigers Bass Tab

F |----------------------------------------------------------------------------------------------| 
C |--7p0-3h5--7p0-3h5--7p0-3h5--8p0-3h5--8p0-3h5--8p0-3h5----------------------------------------| 
G |----------------------------------------------------------------------------------------------| 
C |----------------------------------------------------------------------------------------------| 

F |----------------------------------------------------------------------------------------------| 
C |--7p0-3h5--7p0-3h5--7p0-3h5--8p0-3h5--8p0-3h5--8p0-3h5----------------------------------------| 
G |----------------------------------------------------------------------------------------------| 
C |---------------------------------------------------------0-0-0-0------------------------------| 




F |----------------------------------------------------------------------------------------------| 
C |----------------------7p0--------------------------------------------------------7p0----------| 
G |--------------------------3-5/6-----------------------55555--------------------------3-5/6----| 
C |--00-000--00-000----0-------------00-000--00-000----0--------00-000--00-000----0--------------| 

F |----------------------------------------------------------------------------------------------| 
C |----------------------------------------------------------------------------------------------| 
G |----------------------------------------------------------------------------------------------| 
C |--00000--0--0-000--0-0-0----------------------------------------------------------------------| 

F |----------------------------------------------------------------------------------------------| 
C |----------------------7p0--------------------------------------------------------7p0----------| 
G |--------------------------3-5/6-----------------------55555--------------------------3-5/6----| 
C |--00-000--00-000----0-------------00-000--00-000----0--------00-000--00-000----0--------------| 

F |----------------------------------------------------------------------------------------------| 
C |----------------------------------------------------------------------------------------------| 
G |----------------------------------------------------------------------------------------------| 
C |--00000--0--0-000--0-0-0----------------------------------------------------------------------| 




F |----------------------------------------------------------------------------------------------| 
C |-------575----------575----------575----------575----------575----------575-------------------| 
G |----578---875----578---875----578---875----578---875----578---875----578---875----------------| 
C |--07---------7-07---------7-07---------7-07---------7-07---------7-07---------7---------------| 

F |----------------------------------------------------------------------------------------------| 
C |-------575----------575----------575----------575----------575----------575-------------------| 
G |----578---875----578---875----578---875----578---875----578---875----578---875----------------| 
C |--07---------7-07---------7-07---------7-07---------7-07---------7-07---------7---------------| 

F |----------------------------------------------------------------------------------------------| 
C |-------575----------575----------575----------------------------------------------------------| 
G |----578---875----578---875----578---875-------------------------------------------------------| 
C |--07---------7-07---------7-07---------7-----3-3-3-5-5-5--------------------------------------| 




F |----------------------------------------------------------------------------------------------| 
C |----------------------7p0--------------------------------------------------------7p0----------| 
G |--------------------------3-5/6-----------------------55555--------------------------3-5/6----| 
C |--00-000--00-000----0-------------00-000--00-000----0--------00-000--00-000----0--------------| 

F |----------------------------------------------------------------------------------------------| 
C |----------------------------------------------------------------------------------------------| 
G |----------------------------------------------------------------------------------------------| 
C |--00000--0--0-000--0-0-0----------------------------------------------------------------------| 

F |----------------------------------------------------------------------------------------------| 
C |----------------------7p0--------------------------------------------------------7p0----------| 
G |--------------------------3-5/6-----------------------55555--------------------------3-5/6----| 
C |--00-000--00-000----0-------------00-000--00-000----0--------00-000--00-000----0--------------| 
[ Tab from: http://www.guitartabs.cc/tabs/t/thrice/paper_tigers_btab.html ]
F |----------------------------------------------------------------------------------------------| 
C |----------------------------------------------------------------------------------------------| 
G |----------------------------------------------------------------------------------------------| 
C |--00000--0--0--0------------------------------------------------------------------------------| 




F |----------------------------------------------------------------------------------------------| 
C |----------------------------------------------------------------------------------------------| 
G |--8----7---8---10-----------------------8----7---8---5---------0-3-5-0------------------------| 
C |----00---0---0--------0-0-0-000-000-------00---0---0---------0---------3-0--------------------| 

F |----------------------------------------------------------------------------------------------| 
C |----------------------------------------------------------------------------------------------| 
G |--8----7---8---10-----------------------8----7---8---5----------------------------------------| 
C |----00---0---0--------0-0-0-000-000-------00---0---0---------00--00000000---------------------| 

F |----------------------------------------------------------------------------------------------| 
C |----------------------------------------------------------------------------------------------| 
G |--8----7---8---10-----------------------8----7---8---5---------0-3-5-0------------------------| 
C |----00---0---0--------0-0-0-000-000-------00---0---0---------0---------3-0--------------------| 

F |----------------------------------------------------------------------------------------------| 
C |----------------------------------------------------------------------------------------------| 
G |--8----7---8---10-----------------------------------------------------------------------------| 
C |----00---0---0--------0-0-0-000-000-----00000--0-0--000--0--0--0------------------------------| 




F |----------------------------------------------------------------------------------------------| 
C |-------575----------575----------575----------575----------575----------575-------------------| 
G |----578---875----578---875----578---875----578---875----578---875----578---875----------------| 
C |--07---------7-07---------7-07---------7-07---------7-07---------7-07---------7---------------| 

F |----------------------------------------------------------------------------------------------| 
C |-------575----------575----------575----------575----------575----------575-------------------| 
G |----578---875----578---875----578---875----578---875----578---875----578---875----------------| 
C |--07---------7-07---------7-07---------7-07---------7-07---------7-07---------7---------------| 

F |----------------------------------------------------------------------------------------------| 
C |-------575----------575----------575----------575----------575----------575-------------------| 
G |----578---875----578---875----578---875----578---875----578---875----578---875----------------| 
C |--07---------7-07---------7-07---------7-07---------7-07---------7-07---------7---------------| 

F |----------------------------------------------------------------------------------------------| 
C |-------575----------575----------575----------575----------575----------575-------------------| 
G |----578---875----578---875----578---875----578---875----578---875----578---875----------------| 
C |--07---------7-07---------7-07---------7-07---------7-07---------7-07---------7---------------| 

F |----------------------------------------------------------------------------------------------| 
C |-------575----------575----------575----------575----------575----------575-------------------| 
G |----578---875----578---875----578---875----578---875----578---875----578---875----------------| 
C |--07---------7-07---------7-07---------7-07---------7-07---------7-07---------7---------------| 



F |----------------------------------------------------------------------------------------------| 
C |----------------------------------------------------------------------------------------------| 
G |----------------------------------------------------------------------------------------------| 
C |--0----0----0----0----00000---00000---00000---00000---00000---00000---00000---00000-----------| 

F |----------------------------------------------------------------------------------------------| 
C |----------------------------------------------------------------------------------------------| 
G |----------------6----------------6----------------6----------------6-------------6------------| 
C |--00000-0--0000----00000-0--0000----00000-0--0000----00000-0--0000----------0000--------------| 

F |----------------------------------------------------------------------------------------------| 
C |----------------------------------------------------------------------------------------------| 
G |----------------6----------------6----------------6----------------6-------------6------------| 
C |--00000-0--0000----00000-0--0000----00000-0--0000----00000-0--0000----------0000--------------| 

F |----------------------------------------------------------------------------------------------| 
C |----------------------------------------------------------------------------------------------| 
G |----------------------------------------------------------------------------------------------| 
C |--00000---00000-------------------------------------------------------------------------------|
Comments