Thrice - Motion Without Meaning Chords & Tabs

 

Motion Without Meaning Chords & Tabs

Thrice Chords & Tabs

Version: 1 Type: Tab 0 ratings
1 star 2 stars 3 stars 4 stars 5 stars
comments

Motion Without Meaning Tab

   
ARTIST: Thrice
TITLE: Motion Without Meaning
ALBUM: n/a
TABBED BY: kryptonite22
TUNING: Drop C (C G C F a D)
NOTES: Listen to song for timing and rhythm. Damn good song.

INTRO (BOTH GUITARS)
D|----------------------------------------|
A|----------------------------------------|
F|----------------------------------------|
C|-0-8-10-0--10/12-12-12-0-3-5-5/7-7-7-7--|
G|-0-8-10-0--8/10-10-10--0-3-5-3/5-5-5-5--|
C|-0-8-10-0--------------0-3-5------------|

VERSE (GUITAR ONE - MUTED, REPEATS AS LEAD IS PLAYED)
D|-------------------------------------------------------------------|
A|-------------------------------------------------------------------|
F|-7-7-7-7-7-7-7-7-6-6-6-6-6-6-6-6-6-6-6-6-6-6-7-7-7-7-7-7-5-5-5-5-5-|
C|-------------------------------------------------------------------|
G|-------------------------------------------------------------------|
C|-------------------------------------------------------------------|
  
VERSE (GUITAR TWO)
D|-----------------------------------------------|
A|-----------------------------------------------|
F|----------14---10---14---10---14---10----------|
C|0h10h12p0----0----0----0----0----0----0--------|
G|-----------------------------------------------|
C|-----------------------------------------------|

VERSE (GUITAR TWO CONT.)
D|17-17-17-17-17-17-17-------------------------17-17-17-17-17b19r17-------|
A|------------------------15-15-15-15-15-15-15----------------------15-15-|
F|------------------------------------------------------------------------|
C|------------------------------------------------------------------------|
G|------------------------------------------------------------------------|
C|------------------------------------------------------------------------|
[ Tab from: http://www.guitartabs.cc/tabs/t/thrice/motion_without_meaning_tab.html ]
VERSE (GUITAR TWO CONT.)
D|---------------17-17-17-17-17-17-17-17-------------------------12h13p12-|
A|15-15-15-15-15-------------------------15-15-15-15-15-15-15-15----------|
F|------------------------------------------------------------------------|
C|------------------------------------------------------------------------|
G|------------------------------------------------------------------------|
C|------------------------------------------------------------------------|

VERSE (GUITAR TWO CONT.)
D|---12h13p12---12h13p12--------------------------------------------------|
A|15-----------13----------13---------------------------------------------|
F|------------------------------------------------------------------------|
C|------------------------------------------------------------------------|
G|------------------------------------------------------------------------|
C|------------------------------------------------------------------------|

CHORUS (GUITAR ONE)
D|------------------------------------------------------------------------|
A|------------------------------------------------------------------------|
F|------------------------------------------------------------------------|
C|-8-8-8-8-8-8-8-8-5-5-5-5-5-5-5-5-0-8-10-0-10/12-12-12--0-3-5-5/7-7-7-7--|
G|-8-8-8-8-8-8-8-8-5-5-5-5-5-5-5-5-0-8-10-0--8/10-10-10--0-3-5-3/5-5-5-5--|
C|-8-8-8-8-8-8-8-8-5-5-5-5-5-5-5-5-0-8-10-0--------------0-3-5------------|

CHORUS (GUITAR ONE CONT.)
D|---------------------------------------------|
A|---------------------------------------------|
F|---------------------------------------------|
C|-8--8-8--5~---8--8-8--0-0-0~---8--8-8--5~----|
G|-8--8-8--5~---8--8-8--0-0-0~---8--8-8--5~----|
C|-8--8-8--5~---8--8-8--0-0-0~---8--8-8--5~----|

CHORUS (GUITAR TWO)
D|------------------------------------------------------------------------|
A|------------------------------------------------------------------------|
F|------------------------------------------------------------------------|
C|0-3-5-0-10-12-12-12-0-3-5-0-7-7-7-7-0-8-10-0-10/12-12-12-0-3-5-5/7-7-7-7|
G|------------------------------------0-8-10-0--8/10-10-10-0-3-5-3/5-5-5-5|
C|------------------------------------0-8-10-0-------------0-3-5----------|

CHORUS (GUITAR TWO CONT.)
D|-------------------------------------------------------|
A|-------------------------------------------------------|
F|---------------------0h10h12---------------------------|
C|8--8-8--5~---0h10h12----------0-0-0~---8--8-8--5~------|
G|8--8-8--5~--------------------0-0-0~---8--8-8--5~------|
C|8--8-8--5~--------------------0-0-0~---8--8-8--5~------|

VERSE TWO (SAME AS FIRST VERSE)

CHORUS TWO (SAME AS FIRST CHORUS BUT END ON 10 INSTEAD OF 5)

OUTRO (SAME AS INTRO - BOTH GUITARS)
Comments