Thrice - Motion Without Meaning Chords & Tabs

 

Motion Without Meaning Chords & Tabs

Thrice Chords & Tabs

Version: 2 Type: Bass Tab

Motion Without Meaning Bass Tab

Thrice - Motion Isn't Meaning
Tabbed by revolt! (onlysmartieshavetheanswer66@hotmail.com)

(00:00)

X4
F|-------------------------------------------|
C|-------------------------------------------|
G|----------8h10-10-10-----------------------|
C|-0-8-10-0------------0-8-10-10/12-12-12-12-|


X1    						 
F|----|-------------------------------------------------|----|----|
C|-12-|-11-11-11-11-11-11-11-11-------------------------|----|----|
G|----|-------------------------12-12-12-12-12-12-10 12-|-13-|-15-|
C|----|-------------------------------------------------|----|----|
  X16							 X16  X16

X1
F|-------------------------------------------------------------|
C|-------------------------------------------------------------|
G|-------------------------------------------------------------|
C|-15/0-0-0--0-0-0-0--0-0-0--0-0-0--1-1--1-1-1-1--1-1-1--1-1-1-|

X1
F|----------------------------------------------------------|
C|----------------------------------------------------------|
G|-------------8h10-8---7-8-7-------------------------------|
C|-1/8-8-8-8-8--------8-------8-5-5--5-5-5-5--5-5-5--5-5-5--|

X1
F|-----------------------------|
C|-----------------------------|
G|-----------------------------|
C|-8-8--8-8-8--5--5-5-5--5-5-5-|

X1
F|-------------------------------------------|
C|-------------------------------------------|
G|----------8h10-10-10-----------------------|
C|-0-8-10-0------------0-8-10-10/12-12-12-12-|

X1
F|-----------------------------|
C|-----------------------------|
G|-----------------------------|
C|-8-8--8-8-8--5--5-5-5--5-5-5-|

X1
F|-------------------------------------------|
C|-------------------------------------------|
G|----------8h10-10-10-----------------------|
C|-0-8-10-0------------0-8-10-10/12-12-12-12-|
[ Tab from: http://www.guitartabs.cc/tabs/t/thrice/motion_without_meaning_btab_ver_2.html ]
X1
F|-----------------------------------|
C|-----------------------------------|
G|-----------------------------------|
C|-8--8--5----8--8--0-0-0----8--8--5-|

X1
F|----|-------------------------------------------------|----|----|
C|-12-|-11-11-11-11-11-11-11-11-------------------------|----|----|
G|----|-------------------------12-12-12-12-12-12-10 12-|-13-|-15-|
C|----|-------------------------------------------------|----|----|
  X16							 X16  X16

X1
F|--------------------------------------------------------|
C|--------------------------------------------------------|
G|--------------------------------------------------------|
C|-0-0--0-0-0-0--0-0-0--0-0-0--1-1--1-1-1-1--1-1-1--1-1-1-|

X1
F|----------------------------------------------------------|
C|----------------------------------------------------------|
G|-------------8h10-8---7-8-7-------------------------------|
C|-1/8-8-8-8-8--------8-------8-5-5--5-5-5-5--5-5-5--5-5-5--|

F|-----------------------------|
C|-----------------------------|
G|-----------------------------|
C|-8-8--8-8-8--5--5-5-5--5-5-5-|

F|-------------------------------------------|
C|-------------------------------------------|
G|----------8h10-10-10-----------------------|
C|-0-8-10-0------------0-8-10-10/12-12-12-12-|

X1
F|-----------------------------|
C|-----------------------------|
G|-----------------------------|
C|-8-8--8-8-8--5--5-5-5--5-5-5-|

X1
F|-------------------------------------------|
C|-------------------------------------------|
G|----------8h10-10-10-----------------------|
C|-0-8-10-0------------0-8-10-10/12-12-12-12-|

X1
F|------------------------------------|
C|------------------------------------|
G|------------------------------------|
C|-8--8--5----8--8--0-0-0----8--8--10-|

X8
F|-------------------------------------------|
C|-------------------------------------------|
G|----------8h10-10-10-----------------------|
C|-0-8-10-0------------0-8-10-10/12-12-12-12-|