Thrice - Motion Without Meaning Chords & Tabs

 

Motion Without Meaning Chords & Tabs

Thrice Chords & Tabs

Version: 1 Type: Bass Tab 0 ratings
1 star 2 stars 3 stars 4 stars 5 stars
comments

Motion Without Meaning Bass Tab

Intro X4
F|-------------------|----------------|
C|-------------------|----------------|
G|-0-1-3-0/10101010--|--0-1-3-0/5555--|
C|-------------------|----------------|

Verse/Chrous etc - Let guitar play the first lot of notes then join in
F|-----------------------------------------------------------------|
C|-----------------------------------------------------------------|
G|-2-2-2-2-2-2-2h3-3-3-3-3-3-3-3-3-3-3h5-5-5-5-5-5-5-5-5-5-5-5-----|
C|-----------------------------------------------------------------|

F|------------------------------------------------------------------------|
C|------------------------------------------------------------------------|
G|----------------------------00000000/10-10/12p10-10h12p10---------------|
C|--333333333333-000000000000-------------------------------333333333333--|

F|----------------------------------------------------|
C|----------------------------------------------------|  X2
G|-3-3-33-3-0-0-00-0--0-1-3-0/10101010--0-1-3-0/5555--|
C|----------------------------------------------------|
[ Tab from: http://www.guitartabs.cc/tabs/t/thrice/motion_without_meaning_btab.html ]
F|-----------------------------------|
C|-----------------------------------|
G|-----------------------------------|
C|--7~---3~---5~--33-3~----5~----3~--|

F|-----------------------------------------------------------------|
C|-----------------------------------------------------------------|
G|-2-2-2-2-2-2-2h3-3-3-3-3-3-3-3-3-3-3h5-5-5-5-5-5-5-5-5-5-5-5-----|
C|-----------------------------------------------------------------|

F|------------------------------------------------------------------------|
C|------------------------------------------------------------------------|
G|----------------------------00000000/10-10/12p10-10h12p10---------------|
C|--333333333333-000000000000-------------------------------333333333333--|

F|----------------------------------------------------|
C|----------------------------------------------------|  X2
G|-3-3-33-3-0-0-00-0--0-1-3-0/10101010--0-1-3-0/5555--|
C|----------------------------------------------------|

F|-----------------------------------|
C|-----------------------------------|
G|-----------------------------------|
C|--7~---3~---5~--33-3~----5~----7~--|

F|-------------------|----------------|
C|-------------------|----------------|  x8
G|-0-1-3-0/10101010--|--0-1-3-0/5555--|
C|-------------------|----------------|

End with a slide down from 5
Comments