Thrice - Kill Me Quickly Chords & Tabs

 

Kill Me Quickly Chords & Tabs

Thrice Chords & Tabs

Version: 1 Type: Bass Tab 0 ratings
1 star 2 stars 3 stars 4 stars 5 stars
comments

Kill Me Quickly Bass Tab

Tuning: all strings dropped down half a step, then E string dropped to C#

/ or  means slide
h means hammer

G|---------------------------------------------------------------------------|
D|---------------------------------------------------------------------------|
A|---------------------------------------------------------------------------|
E|-22--22-2-2-22-22--22-2-2-22-22--22-2-2-22-22--22-2-2-22-------------------|

G|---------------------------------------------------------------------------|
D|---------------------------------------------------------------------------|
A|-3333333333333333-5555555555555555------------------------------44-4--4444-|
E|------------------------------------22-2--2222--22-2--22-2--222------------|

G|---------------------------------------------------------------------------|
D|---------------------------------------------------------------------------|
A|-44-4--44-4--444--55-5--5555--55-5--55-5-555--00-0--0000--00-0--00-0--000--|
E|---------------------------------------------------------------------------|

G|---------------------------------------------------------------------------|
D|---------------------------------------------------------------------------|
A|-3333333333333333-5555555555555555---22-2-2--222-2-2-----------------------|
E|---------------------------------------------------------------------------|

G|---------------------------------------------------------------------------|
D|---------------------------------------------------------------------------|
A|-3333333333333333-5555555555555555---22-2-2--222-2-2-----------------------|
E|---------------------------------------------------------------------------|

G|---------------------------------------------------------------------------|
D|---------------------------------------------------------------------------|
A|-3333333333333333-5555555555555555-7777777777777777-7777777777777777-------|
E|---------------------------------------------------------------------------|

G|---------------------------------------------------------------------------|
D|---------------------------------------------------------------------------|
A|-3333333333333333-5555555555555555-7---------------------------------------|
[ Tab from: http://www.guitartabs.cc/tabs/t/thrice/kill_me_quickly_btab.html ]
G|---------------------------------------------------------------------------|
D|---------------------------------------------------------------------------|
A|---------------------------------------------------------------------------|
E|-22-2--2222--22-2--22-2--222---22-2--2222--22-2--22-2--222--0-----0-0----2-|

G|-12-----------12-----------------------------------------------------------|
D|----14-----------14--------------------------------------------------------|
A|-------14-----------14-----------------------------------------------------|
E|----------14-----------14--------------------------------------------------|

TAPPING PART
G|---------------------------------------------------------------------------|
D|----------14-17-14----14--------------14-17-14----14---(play this 4 times)-|
A|-14-12-14----------14--------14-12-14----------14--------------------------|
E|---------------------------------------------------------------------------|

G|---------------------------------------------------------------------------|
D|-17-14----16-14----17-14----16-14----17-14---------------------------------|
A|-------14-------14-------14-------14-------14-19---------------------------|
E|---------------------------------------------------------------------------|

G|---------------------------------------------------------------------------|
D|-17-14----16-14----17-14----19-14----17-14---------------------------------|
A|-------14-------14-------14-------14-------14-19---------------------------|
E|---------------------------------------------------------------------------|

G|---------------------------------------------------------------------------|
D|-17-14----16-14----17-14----19-14----19-14---------------------------------|
A|-------14-------14-------14-------14-------14-19---------------------------|
E|---------------------------------------------------------------------------|

STOP TAPPING
G|-----------------------------------------------------------------------------|
D|-----------------------------------------------------------------------------|
A|-------------------------------------/7777---/7777--------222-2222-----------|
E|-2-2-2-2-2-2-2-2--2-2-2-2-2-2--14222-----222-----555-5555--------------------|

G|---------------------------------------------------------------------------|
D|---------------------------------------------------------------------------|
A|----/7777---/7777--------222-2222---------7777--------7777--------222-2222-|
E|-222-----222-----555-5555---------22222222----22222222----555-5555---------|

G|---------------------------------------------------------------------------|
D|---------------------------------------------------------------------------|
A|----/7777---/7777--------222-2h3-2-----------------------------------------|
E|-222-----222-----555-5555----------h5-2-----done---------------------------|
Comments