Thrice - Ive Just Seen A Face Chords & Tabs

 

Ive Just Seen A Face Chords & Tabs

Thrice Chords & Tabs

Version: 1 Type: Tab 0 ratings
1 star 2 stars 3 stars 4 stars 5 stars
comments

Ive Just Seen A Face Tab

Artist:Thrice
Song:I've Just Seen a Face
tabbed by:Marecl(dupsidolittle@hotmail.com

intro:
e|--------------------------------------------------------------------------|
B|--------------------------------------------------------------------------|
G|-----------------------------------4~~------------------------------------|
D|-9~~----9-8---6~~----6-4-2~~--4~~--4~~------------------------------------|
A|-9~~----9-8---6~~----6-4-2~~--4~~--2~~------------------------------------|
E|-7~~----7-6---4~~----4-2-0~~--2~~-----------------------------------------|
  "ive just seen a face"

verse: (play intro chords for other guitar)
e|--------------------------------------------------------------------------|
B|--------------------------------------------------------------------------|
G|-4--6--8--9--8----4--6--8--9--8----4--9--8--6--4--------------------------|
D|--------------------------------------------------------------------------|
A|-2--4--6--7--6----2--4--6--7--6----2--7--6--4--2--------------------------|
E|--------------------------------------------------------------------------|

[ Tab from: http://www.guitartabs.cc/tabs/t/thrice/ive_just_seen_a_face_tab.html ]
e|-------------------------------------------------------------------------|
B|-------------------------------------------------------------------------|
G|-4--6--8--9--8----4--6--8--9--8----4--9--8--6--4-------------------------|
D|-------------------------------------------------------------------------|
A|-2--4--6--7--6----2--4--6--7--6----2--7--6--4--2-------------------------|
E|-------------------------------------------------------------------------|

chorus: gtr 1
e|--------------------------------------------------------------------------|
B|--------------------------------------------------------------------------|
G|-11--13--15--13--11--13--15--13-------------------------------------------|
D|--------------------------------------------------------------------------|
A|--9--11--13--11---9--11--13--11-------------------------------------------|
E|--------------------------------------------------------------------------|
 "falling yes i am falling"

e|--------------------------------------------------------------------------|
B|--------------------------------------------------------------------------|
G|-8--6--4-4-4-4------------------------------------------------------------|
D|--------------------------------------------------------------------------|
A|-6--4--2-2-2-2------------------------------------------------------------|
E|--------------------------------------------------------------------------|
  "back again"

chorus: gtr 2
e|--------------------------------------------------------------------------|
B|--------------------------------------------------------------------------|
G|-11-11-11-11-11-11-11-11-11-11--9-9-9-9-9-9-9-9-9-------------------------|
D|-11-11-11-11-11-11-11-11-11-11--9-9-9-9-9-9-9-9-9-9-9-9-9-9-9-9-9-9-------|
A|--9--9--9--9--9--9--9--9--9--9--7-7-7-7-7-7-7-7-7-9-9-9-9-9-9-9-9-9-------|
E|--------------------------------------------------7-7-7-7-7-7-7-7-7-------|

just repeat all these things a bunch you can figure it out
Comments