Thrice - Image Of The Invisble Chords & Tabs

 

Image Of The Invisble Chords & Tabs

Thrice Chords & Tabs

Version: 1 Type: Bass Tab

Image Of The Invisble Bass Tab

Band: Thrice
Song: Image of The Invisible
Album: Vheissu

Tabbed By BBCC (Forinstants@hotmail.com)

Tuning in Drop D

Intro
G|---------------------------------------------------------------------------|
D|---------------------------------------------------------------------------|
A|-------------------------------66666333333333------------66666666663333333-|
D|---5--------5------55555555555----------------5555555555-------------------|

Chorus
G|---------------------------------------------------------------------------|
D|---------------------------------------------------------------------------|
A|--------------------------------------------5----5h3-5---5--5h3-5----------|
D|-111111111111555555555333333333-111111111115--5-------5-3-3-------31111111-|

Verse
G|---------------------------------------------------------------------------|
D|---------------------------------------------------------------------------|
A|--------------------6666666666333333333-------------------666666666663-----|
D|-5555555555------------------------------------555555555-------------------|
[ Tab from: http://www.guitartabs.cc/tabs/t/thrice/image_of_the_invisble_btab.html ]
Chorus
G|---------------------------------------------------------------------------|
D|---------------------------------------------------------------------------|
A|--------------------------------------------5----5h3-5---5--5h3------------|
D|-111111111111555555555333333333-111111111115---5------5-3-3------31111111--|


Verse Comes Back After a Break
G|---------------------------------------------------------------------------|
D|---------------------------------------------------------------------------|
A|--------------------6666666666333333333-------------------666666666663-----|
D|-5555555555------------------------------------555555555-------------------|


Chorus
G|---------------------------------------------------------------------------|
D|---------------------------------------------------------------------------|
A|--------------------------------------------5----5h3-5---5-5h3-------------|
D|-111111111111555555555333333333-111111111115--5-------5-3-3-----31111111---|


G|--------------------------------------------------------------------|
D|--------------------------------------------------------------------|
A|--------------------------------------------------------------------|
D|-11111111333333333355555558888888888888-----------------------------|

Ending
G|---------------------------------------------------------|
D|---------------------------------------------------------|
A|---------------------------------------------------------|
D|-111------------111----------111----------111-1----------|