Thrice - Identity Crisis Chords & Tabs

 

Identity Crisis Chords & Tabs

Thrice Chords & Tabs

Version: 2 Type: Tab 0 ratings
1 star 2 stars 3 stars 4 stars 5 stars
comments

Identity Crisis Tab

THRICE-
Identity Crisis
"Identity Crisis"

x-Palm mute
*-Figure out picking
/-Slide
~-Let ring


INTRO:
|---------------------------------------------------------------------------------|
|---------------------------------------------------------------------------------|
|---------------------------------------------------------------------------------|
|--------6--6--6h7p6------4------------6h7p6-------------------6h7p6----6-7-9-7-6-|
|-----4---------------5-55-55-7-55-7-55-----------4-------------------77-7-7-7-7--|
|-2-22-22-22-22-------------------------------5-55-55-7-55-7-55-------------------|
  x xxxxxxxxxxxxxxxx  x xxxxx x xx x xxxxxxx  x xxxxx x xx x xxxxxxx  xxxxxxxxxxx

|---------------------------------------------------------------------------------|
|---------------------------------------------------------------------------------|
|---------------------------------------------------------------------------------|
|--------6--6--6h7p6------4------------6h7p6-------------------6h7p6----6-7-9-7-6-|
|-----4---------------5-55-55-7-55-7-55-----------4-------------------77-7-7-7-7--|
|-2-22-22-22-22-------------------------------5-55-55-7-55-7-55-------------------|

|---------------------------------------------------------------------------------|
|---------------------------------------------------------------------------------|
|---------------------------------------------------------------------------------|
|--------6--6--6h7p6------4------------6h7p6-------------------6h7p6----3-4-6-4-3-|
|-----4---------------5-55-55-7-55-7-55-----------4-------------------44-4-4-4-4--|
|-2-22-22-22-22-------------------------------5-55-55-7-55-7-55-------------------|

VERSE:
|--------------------|
|--------------------|
|--------------------|
|-4~-0~-4~-0~-6h7p6--|
|------------------7-|
|--------------------|

PRECHORUS:
|----------------------|
|----------------------|
|---------6-6-6-4-2-1--|
|-444-777------------3-|
|-222-555--------------|
|----------------------|
  *** ***         * **

CHORUS:
|-------------------------------------------------------------
|-------------------------------------------------------------
|-------------------------------------------------------------
|--------6--6--6h7p6-7-6-4-4-44--------6--6--6h7p6-7-6/9-7-67-
|-----4-----------------------------4-------------------------
|-2-22-22-22-22-----------------2-22-22-22-22-----------------

-----------------------------------------------------------------|
-----------------------------------------------------------------|
-----------------------------------------------------------------|
-----4------------6h7p6-0-2-4-7-67-----4------------6h7p6-7-2-3~-|
-5-55-55-7-55-7-55-----------------5-55-55-7-55-7-55-------------|
-----------------------------------------------------------------|

VERSE:
|---------------------|
|---------------------|
|---------------------|
|-4~-0~-4~-0~-6h7p6---|
|------------------7~-|
|---------------------|

[Here both guitars pause and for the bass part, it lasts as long as a VERSE]
[ Tab from: http://www.guitartabs.cc/tabs/t/thrice/identity_crisis_tab_ver_2.html ]
PRECHORUS:
|----------------------|
|----------------------|
|---------6-6-6-4-2-1--|
|-444-777------------3-|
|-222-555--------------|
|----------------------|
  *** ***         * **  

CHORUS:
|-------------------------------------------------------------
|-------------------------------------------------------------
|-------------------------------------------------------------
|--------6--6--6h7p6-7-6-4-4-44--------6--6--6h7p6-7-6/9-7-67-
|-----4-----------------------------4-------------------------
|-2-22-22-22-22-----------------2-22-22-22-22-----------------

-----------------------------------------------------------------|
-----------------------------------------------------------------|
-----------------------------------------------------------------|
-----4------------6h7p6-0-2-4-7-67-----4------------6h7p6-7-2-3~-|
-5-55-55-7-55-7-55-----------------5-55-55-7-55-7-55-------------|
-----------------------------------------------------------------|

BRIDGE:
|----------------------------|
|----------------------------|
|----------------------------|
|-4~-----------4~-----6h7p6--|
|---5~-4-4h5p4---54-54-----7-|
|----------------------------|

PREOUTRO:
|------------------------------------------------------------------|
|------------------------------------------------------------------|
|------------------------------------------------------------------|
|-4-44-7-44-74-----3/4-44-6h7p6-----4-44-7-44-74-----3/4-44-6h7p6--|
|------------------------------7---------------------------------7-|
|--------------5-55------------------------------5-55--------------|

OUTRO:
|-----------------------------------------------------------------------------------------
|-----------------------------------------------------------------------------------------
|-----------------------------------------------------------------------------------------
|-7-64-7-6/11-11-9h11p9--0-24--7-6-3--7-6-7-9-7-6--7-6/11-11-99-7-77-6/7-77-4/6-66-2/3-33-
|-----------------------------------------------------------------------------------------
|-----------------------------------------------------------------------------------------
     *                      *      *                         **   **     **     **

-------------------------------------------------------------------------------------------------------------|
-------------------------------------------------------------------------------------------------------------|
------------------------------------------------------------------------------------9/11-11-11-8/9 99-6/7-7--|
-7-6-7-9-76-7-6/11-11-9h11p9--0-2-4-6-7-6-7-77/99-99-9/11-11-12-12-11--11-11-9-99-77-------------------------|
-----------------------------------------------------------------------------------------------------------9~|
-------------------------------------------------------------------------------------------------------------|
                                            **    **      *     *                 **


This is my first tab. Hope its as correct as possible (the tunning is two steps down).
Comments