Thrice - Hoods On Peregerine Chords & Tabs

 

Hoods On Peregerine Chords & Tabs

Thrice Chords & Tabs

Version: 1 Type: Bass Tab 0 ratings
1 star 2 stars 3 stars 4 stars 5 stars
comments

Hoods On Peregerine Bass Tab

   
Tunning: C G C F

F|---------------------|
C|---------------------|
G|-3h5-55----3h5-55----|
C|--------00--------00-| play alot

F|----------|
C|----------|
G|-1~-5~-3~-|
C|----------|

F|------------------------------------------------|
C|--------------------33-3-33--55-5-55---0--032---|
G|-3h5-5-55-3h5-5-55-------------------03-03---30-|
C|------------------------------------------------|

F|-5h7-77------------------------------------|
C|--------5h7-77---------------------3-------|
G|---------------3h5-55-5555--3h5-55---5-3-5-|
C|-------------------------------------------|

F|-----------------10--------------------------------|
C|---------9-10-12----12-10----------9-10-12-10-9----|
G|-9-10-12-------------------9-10-12--------------12-|
C|---------------------------------------------------|

F|---------------------|
C|---------------------|
G|-3h5-55----3h5-55----|
C|--------00--------00-|

F|-----------------10--------------------------------|
C|---------9-10-12----12-10----------9-10-12-10-9----|
G|-9-10-12-------------------9-10-12--------------12-|
C|---------------------------------------------------|

F|---------------------|
C|---------------------|
G|-3h5-55----3h5-55----|
C|--------00--------00-|

F|--------------------------------------------|
C|--------------------------------------------|
G|------------------------------------------5-|
C|-00-00-00-00-0-00-07-8-00-00-00--00-7-8-5---|

F|---------------------------------------------------------------------------------|
C|---------------------------------------------------------------------------------|
G|---------------------------------------------------------------------------------|
C|-7-0-7h8-00-7-0-7h8-00-7-0-7h8-77-0-875-7-0-7h8-00-7-0-7h8--00-7-0-7h8--77-0-875-|
[ Tab from: http://www.guitartabs.cc/tabs/t/thrice/hoods_on_peregerine_btab.html ]
F|---------------------------------------------------------------|
C|---------------------------------------------------------------|
G|--------------3h5-55----3h5-55-0-1-3--3h5-55----3h5-55-0--1--3-|
C|0-0-0-0-0-0-0--------00----------------------00----------------| play this a few times.

F|------------------------------------------------|
C|--------------------33-3-33--55-5-55---0--032---|
G|-3h5-5-55-3h5-5-55-------------------03-03---30-|
C|------------------------------------------------|

F|-5h7-77------------------------------------|
C|--------5h7-77---------------------3-------|
G|---------------3h5-55-5555--3h5-55---5-3-5-|
C|-------------------------------------------|

F|-----------------10--------------------------------|
C|---------9-10-12----12-10----------9-10-12-10-9----|
G|-9-10-12-------------------9-10-12--------------12-|
C|---------------------------------------------------|

F|---------------------|
C|---------------------|
G|-3h5-55----3h5-55----|
C|--------00--------00-|

F|-----------------10--------------------------------|
C|---------9-10-12----12-10----------9-10-12-10-9----|
G|-9-10-12-------------------9-10-12--------------12-|
C|---------------------------------------------------|

F|---------------------|
C|---------------------|
G|-3h5-55----3h5-55----|
C|--------00--------00-|

F|----------------------------------------------------------------------|
C|----------------------------------------------------------------------|
G|----1----------------------1------------5-------------1-----------5---|
C|-11--1-11-111-7-8--11-1-11--7-8-5-11-11---1-111-7-8-11-1-11-7-8-5---0-|

F|---------------------|
C|---------------------|
G|-3h5-55----3h5-55----|
C|--------00--------00-| play alot


F|-------------|
C|-------------|
G|-------------|
C|-0-0-0-0-0-0-|

this next part is difficult to make out but he  plays this.

F|-------------|
C|-------------|
G|-------------|
C|-5>-3>-1>-3>-|

then

F|---------------------------------------------------------------------------------|
C|---------------------------------------------------------------------------------|
G|---------------------------------------------------------------------------------|
C|-7-0-7h8-00-7-0-7h8-00-7-0-7h8-77-0-875-7-0-7h8-00-7-0-7h8--00-7-0-7h8--77-0-875-|

Ending with

F|-------|
C|-------|
G|-------|
C|-0>----|
Comments