Thrice - Eclipse Chords & Tabs

 

Eclipse Chords & Tabs

Thrice Chords & Tabs

Version: 1 Type: Bass Tab 0 ratings
1 star 2 stars 3 stars 4 stars 5 stars
comments

Eclipse Bass Tab

Intro:  (2x)  (Come in with drums)
F|--------------------------------------------------|
C|--------------------------------------------------|
G|-----------3>-2-2-2-2-------------3>-2-2-2-2-2-2--|
C|--2>---7>---------------2>---7>-------------------|

Verse:  "Call everyone to arms..."  (2x)
F|----------------------------------------|
C|----------------------------------------|
G|----------------------------------------|
C|-2~---2-2~---4-4-4-5-5-5-7-7-7-0-0-0----|

Chorus:  "We shot the sun..."  (Repeat intro)

Post Chorus:  "For centuries, we watched..."  (2x)
F|------------------------------------------------------------|
C|------------------------------------------------------------|
G|-3>---5>-------3>---5>--------------------------------------|
C|-----------2>------------0-0-0-0---0--0-0-0-0---0--0-0-0-0--|
[ Tab from: http://www.guitartabs.cc/tabs/t/thrice/eclipse_btab.html ]
2nd Verse:  "Call everyone..."
F|--------------------------------------------------------------------------|
C|--------------------------------------------------------------------------|
G|--------------------------------------------------------------------------|
C|-2~---2-2~x---4-4-4-5-5-5-7-7-7-0-0-0--2~---2-2~---4-4-4-5-5-5-7-7-7------|

2nd Verse Cont'd:
F|-------------------------------|
C|-------------------------------|
G|-------------------------------|
C|0-0-0-4-4-4-5-5-5-7-7-7-0-0-0--|

Repeat Chorus  "Eclipse His body..."

Post Chorus:  "For centuries, we watched..."
F|-------------------------------------------------------------|
C|-------------------------------------------------------------|
G|-3~---5~-------3>--/--5>------3>--/--5>-------3>---5>---3>>--|
C|----------2>>------------2>>-------------2>>-----------------|

Bridge:  "For centuries..."
F|----------------------------------------|
C|----------------------------------------|
G|------5>---3>-------------5>---3>---5>--|
C|-2>-------------7>---2>-----------------|

Outro:  "We burned to bridge..."
F|----------------------------------------------------------|
C|----------------------------------------------------------|
G|------5>---3>-------------5>---3>-------------------------|
C|-2>-------------7>---2>-------------0-0-0-0-0-0-0-0-2-2---|
Comments