Thrice - Dont Tell And We Wont Ask Chords & Tabs

 

Dont Tell And We Wont Ask Chords & Tabs

Thrice Chords & Tabs

Version: 1 Type: Bass Tab 0 ratings
1 star 2 stars 3 stars 4 stars 5 stars
comments

Dont Tell And We Wont Ask Bass Tab

   
!-This means 10
r- Let note ring

Intro
F|-------------------------------------|
C|-------------------------------------|
G|-------------------------------------|
C|-0000-0-0000-00000-!!!!-!-!!!!-!!!!!-|

F|--------------------------------------|
C|--------------------------------------|
G|--------------------------------------|
C|-0000-0-0000-00000-!!!!-!-!!!!-!!!!!--|

F|---------------------------------------|
C|---------------------------------------|
G|---------------------------------------|
C|-!!!!-!-!!!!-!!!!!-8888-8-8888-88888---|

Verse
F|----------------------------------------------------------|
C|----------------------------------------------------------|
G|----------------------------------------------------------|
C|-0---10--8---0--10--8-0000-0-0000-00000--101010-10-8888888|

This Part x2
F|-------------------------------------------|
C|-------------------------------------------|
G|-------------------------------------------|
C|-0000-0-0000-00000--101010-10-88888888-----|

Then (And when it comes to murder...)
F|---------------------|
C|---------------------|
G|---------------------|
C|-5555-5-55557--------|

Chorus
F|-------------------------------------|
C|-------------------------------------|
G|-------------------------------------|
C|-0000-0-0000-00000-!!!!-!-!!!!-!!!!!-|

F|-------------------------------------|
C|-------------------------------------|
G|-------------------------------------|
C|-0000-0-0000-00000-!!!!-!-!!!!-!!!!!-|

F|-------------------------------------|
C|-------------------------------------|
G|-------------------------------------|
C|-5555-5-5555-55555-0000-0-0000-00000-|
[ Tab from: http://www.guitartabs.cc/tabs/t/thrice/dont_tell_and_we_wont_ask_btab.html ]
F|-------------------------------------|
C|-------------------------------------|
G|-------------------------------------|
C|-!!!!-!-!!!!-!!!!!-8888-8-8888-88888-|

Repeat Verse Minus Last Part With the 5's

Next (Your actions all are justified...)
F|-------------------------------------|
C|-------------------------------------|
G|-------------5-----------------------|
C|-0--7-8--5-7-------------------------|

Repeat Chorus
Repeat Intro

Then x1
F|---------------------------------|
C|---------------------------------|
G|---------------------------------|
C|--8-------10--------0------------|

Bridge (Vocals Stop) x4
F|---------------------------------|
C|---------------------------------|
G|-555-55555-55-333-33333-33-------|
C|---------------------------------|

Keep playing the 3 the last time

Next Part (Dont we all...) 
F|----------------------------------------------------------|
C|----------------------------------------------------------|
G|-111-11-11-1-111-11-11-1-111------------------------------|
C|-----------------------------555-55-55-5-555-55-55-5-555--|

These are all 1's.

F|------------------------------------------------------------|
C|------------------------------------------------------------|
G|-111-11-11-1-111-11-11-1-111-333-33-33-3-333-33-33-3-333-5r-|
C|------------------------------------------------------------|

Coda x2
F|---------------------------------------------|
C|---------------------------------------------|
G|-5555555555555555-3333333333333333-----------|
C|---------------------------------------------|

Then
F|-----------------------------------------------|
C|-----------------------------------------------|
G|-1111111111111111-3333333333333333-5r----------|
C|-----------------------------------------------|
Comments