Thrice - Deadbolt Chords & Tabs

 

Deadbolt Chords & Tabs

Thrice Chords & Tabs

Version: 1 Type: Tab 0 ratings
1 star 2 stars 3 stars 4 stars 5 stars
comments

Deadbolt Tab

   
Drop Db Tuning - strings are (Db, Ab, Db, Gb, Bb, eb)

... - palm mute
h   - hammer on
p   - pull off
\   - slide down
/   - slide up
~   - let ring out

7x
7x  -  mute strings after strum
5x

------------
 Guitar One
------------
Intro:  (4x)
e|----------------------------------------------------------------|
B|----------------------------------------------------------------|
G|----------------------------------------------------------------|
D|-0--7-0-0-5-0-0-3-0-0-2-0-0-3-0-5-0-0-3-0-0-2-0-3-0-0-----------|
A|------------------------------------------------------3-0-0-3h5-|
D|----------------------------------------------------------------|
   .

Verse:  "When deadbolt awakes you from deja vu dreams"
e|---------------------------------------------------------------------------|
B|---------------------------------------------------------------------------|
G|15----(play-this-----------------------------------------------------------|
D|-x-octave-32-times)--2h3p2----------2h3p2----------2h3p2----------2h3p2----|
A|13-------------------------3p0------------3p0------------3p0------------3p0|
D|-------------------0-----------0--0-----------0--0-----------0--0----------|
                     .           ....           ....           ....
e|---------------------------------------------------------------------------|
B|---------------------------------------------------------------------------|
G|15----(play-this-----0h2p0----------0h2p0----------0h2p0----------0h2p0----|
D|-x-octave-32-times)--------3p0------------3p0------------3p0------------3p0|
A|13-------------------------------------------------------------------------|
D|-------------------0-----------0--0-----------0--0-----------0--0----------|
                     .           ....           ....           ....
e|---------------------------------------------------------------------------|
B|---------------------------------------------------------------------------|
G|-17-17-17-17-17-17-17-17-17-17-17-17-17-17-17-17-15-15-15-15-15-15-15-15---|
D|--x--x--x--x--x--x--x--x--x--x--x--x--x--x--x--x--x--x--x--x--x--x--x--x---|
A|-15-15-15-15-15-15-15-15-15-15-15-15-15-15-15-15-13-13-13-13-13-13-13-13---|
D|---------------------------------------------------------------------------|

e|---------------------------------------------------------------------------|
B|---------------------------------------------------------------------------|
G|-14-14-14-14-14-14-14-14---------------------------------------------------|
D|--x--x--x--x--x--x--x--x-0-0-5-0-7-0-0-8-0-7-0-0-5-7-5---0-0-5-0-7-0-0-8-0-|
A|-12-12-12-12-12-12-12-12-------------------------------8-------------------|
D|---------------------------------------------------------------------------|
                           .................................................
e|---------------------------------------------------------------------------|
B|---------------------------------------------------------------------------|
G|-------------17-17-17-17-17-17-17-17-17-17-17-17-17-17-17-17-15-15-15-15-15|
D|-7-0-0-5-7-5--x--x--x--x--x--x--x--x--x--x--x--x--x--x--x--x--x--x--x--x--x|
A|-------------15-15-15-15-15-15-15-15-15-15-15-15-15-15-15-15-13-13-13-13-13|
D|---------------------------------------------------------------------------|
   ...........
e|----------------------------------|
B|----------------------------------|
G|-15-15-15-14-14-14-14-14-14-14-14-|
D|--x--x--x--x--x--x--x--x--x--x--x-|
A|-13-13-13-12-12-12-12-12-12-12-12-|
D|----------------------------------|

Chorus:  "I just close my eyes, and I'm already here its already to late"
e|---------------------------------------------------------------------------|
B|---------------------------------------------------------------------------|
G|-----------------2-2x------------------------------------------------------|
D|-0-0x------------5-5x----5-5x----10-10x----------8-8x----7-7x--------------|
A|-0-0x------------3-3x----3-3x-----8--8x----------5-5x----5-5x--------------|
D|-0-0x--------------------3-3x-----8--8x----------5-5x----5-5x--------------|

e|-----------------------------------------------------------------|
B|-10-----6-----5---8-----6-----5---10-----6-----5---8-----6-----5-|
G|----7-7---7-7---7---7-7---7-7---7----7-7---7-7---7---7-7---7-7---|
D|-----------------------------------------------------------------|
A|-----------------------------------------------------------------|
D|-----------------------------------------------------------------|
      ...   ...   .   ...   ...   .    ...   ...   .   ...   ...

Repeat Intro (4x)  "And she calls from the doorway"

Bridge:  "And I'm almost sure that I've been here before"
e|---------------------------------------------------------------------------|
B|---------------------------------------------------------------------------|
G|-12-12-12-12-12-12-12-12-12-12-12-12-12-12-12-12-10-10-10-10-10-10-10-10---|
D|--x--x--x--x--x--x--x--x--x--x--x--x--x--x--x--x--x--x--x--x--x--x--x--x---|
A|-10-10-10-10-10-10-10-10-10-10-10-10-10-10-10-10--8--8--8--8--8--8--8--8---|
D|---------------------------------------------------------------------------|

e|---------------------------------------------------------------------------|
B|---------------------------------------------------------------------------|
G|-10-10-10-10-10-10-10-10-15-15-15-15-15-15-15-15-15-15-15-15-15-15-15-15---|
D|--x--x--x--x--x--x--x--x--x--x--x--x--x--x--x--x--x--x--x--x--x--x--x--x---|
A|--8--8--8--8--8--8--8--8-13-13-13-13-13-13-13-13-13-13-13-13-13-13-13-13---|
D|---------------------------------------------------------------------------|

e|---------------------------------------------------------------------------|
B|---------------------------------------------------------------------------|
G|-14-14-14-14-14-14-14-14-14-14-14-14-14-14-14-14-12-12-12-12-12-12-12-12---|
D|--x--x--x--x--x--x--x--x--x--x--x--x--x--x--x--x--x--x--x--x--x--x--x--x---|
A|-12-12-12-12-12-12-12-12-12-12-12-12-12-12-12-12-10-10-10-10-10-10-10-10---|
D|---------------------------------------------------------------------------|

e|---------------------------------------------------------------------------|
B|---------------------------------------------------------------------------|
G|-12-12-12-12-12-12-12-12-10-10-10-10-10-10-10-10-10-10-10-10-10-10-10-10---|
D|--x--x--x--x--x--x--x--x--x--x--x--x--x--x--x--x--x--x--x--x--x--x--x--x---|
A|-10-10-10-10-10-10-10-10--8--8--8--8--8--8--8--8--8--8--8--8--8--8--8--8---|
D|---------------------------------------------------------------------------|

e|-----------------------------------------------------------------|
B|-----------------------------------------------------------------|
G|-7-7-7-7-7-7-7-7-7-7-7-7-7-7-7-7-9-9-9-9-9-9-9-9-9-9-9-9-9-9-9-9-|
D|-x-x-x-x-x-x-x-x-x-x-x-x-x-x-x-x-x-x-x-x-x-x-x-x-x-x-x-x-x-x-x-x-|
A|-5-5-5-5-5-5-5-5-5-5-5-5-5-5-5-5-7-7-7-7-7-7-7-7-7-7-7-7-7-7-7-7-|
D|-----------------------------------------------------------------|
[ Tab from: http://www.guitartabs.cc/tabs/t/thrice/deadbolt_tab.html ]
Interlude:
e|---------------------------------------------------------------------------|
B|---------------------------------------------------------------------------|
G|---------------------------------------------------------------------------|
D|--------------------0--0--0---7--7--7--7--5--5--5--------------------------|
A|-0-0-0-0-0-0-0-0-0--0--0--0---3--3--3--3--3--3--3--8-8-8-8-8-8-8-8-8-------|
D|-0-0-0-0-0-0-0-0-0--0--0--0---3--3--3--3--3--3--3--8-8-8-8-8-8-8-8-8-------|
   .................                                 .................
e|---------------------------------------------------------------------------|
B|---------------------------------------------------------------------------|
G|------------------------------------------------------------14/12/10/9\10/9|
D|10--10--10---8--8--8--8--7--7--7--------------------2--2--2--x--x--x-x--x-x|
A|-8---8---8---5--5--5--5--5--5--5-0-0-0-0-0-0-0-0-0--0--0--0-12/10/-8/7\-8/7|
D|-8---8---8---5--5--5--5--5--5--5-0-0-0-0-0-0-0-0-0--0--0--0----------------|
                                   .................
e|---------------------------------------------------------------------------|
B|---------------------------------------------------------------------------|
G|--------------------10--10--10---10/9\10\12/10/9/5-------------------------|
D|---------------------x---x---x----x-x--x--x--x-x-x------0-----0-0-0--------|
A|-8-8-8-8-8-8-8-8-8---8---8---8----8/7\-8\10/-8/7/3--0-0-0-0-0-0-0-0--------|
D|-8-8-8-8-8-8-8-8-8----------------------------------0-0-0-0-0-0-0-0--------|
   .................                                  ...   ...
e|---------------------------------------------------------------------------|
B|---------------------------------------------------------------------------|
G|---------------------------------------------------------------------------|
D|7-7-7-7-5-5-5-----10-----10-10-10--8-8-8-8-7-7-7-----0-----0-0-0-----------|
A|3-3-3-3-3-3-3-8-8--8-8-8--8--8--8--5-5-5-5-5-5-5-0-0-0-0-0-0-0-0-----------|
D|3-3-3-3-3-3-3-8-8--8-8-8--8--8--8--5-5-5-5-5-5-5-0-0-0-0-0-0-0-0-----------|
                ...    ...                         ...   ...
e|---------------------------------------------------------------|
B|---------------------------------------------------------------|
G|-14/12/10/9\10/9---10-10-10-10-10-10-10-10---10/9\10\12/10/9/5-|
D|--x--x--x-x--x-x----x--x--x--x--x--x--x--x----x-x--x--x--x-x-x-|
A|-12/10/-8/7\-8/7----8--8--8--8--8--8--8--8----8/7\-8\10/-8/7/3-|
D|---------------------------------------------------------------|

Slow Part: repeat until end (thats 16x)
e|-5-----5-----5-----5-----|
B|-------------------------|
G|---6h7---6h7---6h7---6h7-|
D|-------------------------|
A|-------------------------|
D|-------------------------|

------------
 Guitar Two
------------
Intro: (2x)
e|---------------------------------------------------------------------------|
B|---------------------------------------------------------------------------|
G|-----------------------------------------------------------------3-3-3-3-3-|
D|-----------------------------------------------------------------3-3-3-3-3-|
A|-0-0-0-0-0-0-0-0-0-0-0-0-0-0-0-0-0-0-0-0-0-0-0-0-0-0-0-0-0-0-0-0-1-1-1-1-1-|
D|-0-0-0-0-0-0-0-0-0-0-0-0-0-0-0-0-0-0-0-0-0-0-0-0-0-0-0-0-0-0-0-0-----------|

e|---------------------------------------------------------------------------|
B|---------------------------------------------------------------------------|
G|-3-3-3-3-3-3-3-3-3-3-3-5-5-5-5-5-5-5-5-5-5-5-5-5-5-5-5---------------------|
D|-3-3-3-3-3-3-3-3-3-3-3-5-5-5-5-5-5-5-5-5-5-5-5-5-5-5-5---------------------|
A|-1-1-1-1-1-1-1-1-1-1-1-3-3-3-3-3-3-3-3-3-3-3-3-3-3-3-3---------------------|
D|---------------------------------------------------------------------------|

Verse:  (2x)
e|---------------------------------------------------------------------------|
B|---------------------------------------------------------------------------|
G|---------------------------------------------------------------------------|
D|-------------------------------------------------------------------2h3p2---|
A|-5-5-5-5-5-5-5-5-5-5-5-5-5-5-5-5-5-5-5-5-5-5-5-5-5-5-5-5-5-5-5-5-----------|
D|-5-5-5-5-5-5-5-5-5-5-5-5-5-5-5-5-5-5-5-5-5-5-5-5-5-5-5-5-5-5-5-5-0---------|
   .................................................................
e|---------------------------------------------------------------------------|
B|---------------------------------------------------------------------------|
G|---------------------------------------------------------------------------|
D|----------2h3p2----------2h3p2----------2h3p2------------------------------|
A|-3p0------------3p0------------3p0------------3p0--------------------------|
D|-----0--0-----------0--0-----------0--0------------------------------------|
       ....           ....           ....

Verse Continued:
e|---------------------------------------------------------------------------|
B|---------------------------------------------------------------------------|
G|-3-3-3-3-3-3-3-3-3-3-3-3-3-3-3-3-------------------------------------------|
D|-3-3-3-3-3-3-3-3-3-3-3-3-3-3-3-3---------------------------------0-0-2-0-3-|
A|-1-1-1-1-1-1-1-1-1-1-1-1-1-1-1-1-5-5-5-5-5-5-5-5-7-7-7-7-7-7-7-7-----------|
D|---------------------------------5-5-5-5-5-5-5-5-7-7-7-7-7-7-7-7-----------|
                                                                   .........
e|---------------------------------------------------------------------------|
B|---------------------------------------------------------------------------|
G|-------------------------------------------------------3-3-3-3-3-3-3-3-3-3-|
D|-0-0-5-0-3-0-0-2-3-2-0-0-0-2-0-3-0-0-5-0-3-0-0-2-3-2-0-3-3-3-3-3-3-3-3-3-3-|
A|-------------------------------------------------------1-1-1-1-1-1-1-1-1-1-|
D|---------------------------------------------------------------------------|
   .....................................................
e|---------------------------------------------------------------------------|
B|---------------------------------------------------------------------------|
G|-3-3-3-3-3-3---------------------------------------------------------------|
D|-3-3-3-3-3-3---------------------------------------------------------------|
A|-1-1-1-1-1-1-5-5-5-5-5-5-5-5-7-7-7-7-7-7-7-7-------------------------------|
D|-------------5-5-5-5-5-5-5-5-7-7-7-7-7-7-7-7-------------------------------|

Chorus: (2x)
e|--------------------------------------------------------------|
B|--------------------------------------------------------------|
G|-----------------2-2x-----------------------------------------|
D|-0-0x------------5-5x----5-5x----10-10x----------8-8x----7-7x-|
A|-0-0x------------3-3x----3-3x-----8--8x----------5-5x----5-5x-|
D|-0-0x--------------------3-3x-----8--8x----------5-5x----5-5x-|

Chorus Continued: (2x)
e|---------------------------------------------------------------------------|
B|---------------------------------------------------------------------------|
G|-----------------2-2-2-2---------------------------------------------------|
D|-0-0-0-0-0-0-0-0-5-5-5-5-5-5-5-5-10-10-10-10-10-10-10-10-8-8-8-8-7-7-7-7---|
A|-0-0-0-0-0-0-0-0-3-3-3-3-3-3-3-3--8--8--8--8--8--8--8--8-5-5-5-5-5-5-5-5---|
D|-0-0-0-0-0-0-0-0---------3-3-3-3--8--8--8--8--8--8--8--8-5-5-5-5-5-5-5-5---|

Bridge:
e|---------------------------------------------------------------------------|
B|---------------------------------------------------------------------------|
G|---------------------------------------------------------------------------|
D|---------------------------------------------------------------------------|
A|-5-5-5-5-5-5-5-5-5-5-5-5-5-5-5-5-8-8-8-8-8-8-8-8-8-8-8-8-8-8-8-8-5-5-5-5-5-|
D|-5-5-5-5-5-5-5-5-5-5-5-5-5-5-5-5-8-8-8-8-8-8-8-8-8-8-8-8-8-8-8-8-5-5-5-5-5-|

e|---------------------------------------------------------------------------|
B|---------------------------------------------------------------------------|
G|---------------------------------------------------------------------------|
D|---------------------------------------------------------------------------|
A|-5-5-5-5-5-5-5-5-5-5-5-7-7-7-7-7-7-7-7-7-7-7-7-7-7-7-7---------------------|
D|-5-5-5-5-5-5-5-5-5-5-5-7-7-7-7-7-7-7-7-7-7-7-7-7-7-7-7---------------------|

Interlude: (2x)
e|---------------------------------------------------------------------------|
B|---------------------------------------------------------------------------|
G|--------------------7--7--7------------------------------------------------|
D|--------------------7--7--7------------------------------------------------|
A|-0-0-0-0-0-0-0-0-0--5--5--5---3--3--3--3--3--3--3--8-8-8-8-8-8-8-8-8-------|
D|-0-0-0-0-0-0-0-0-0------------3--3--3--3--3--3--3--8-8-8-8-8-8-8-8-8-------|
   .................                                 .................
e|-------------------------------|
B|-------------------------------|
G|-------------------------------|
D|-------------------------------|
A|-8--8--8---5--5--5--5--5--5--5-|
D|-8--8--8---5--5--5--5--5--5--5-|

Interlude Continued: (2x)   
e|---------------------------------------------------------------------------|
B|---------------------------------------------------------------------------|
G|-----------7-7-7-----------------------------------------------------------|
D|-----------7-7-7-----------------------------------------------------------|
A|-0-0-0-0-0-5-5-5---3--3--3--3--3--3--3--8-8-8-8-8-8-8-8---5--5--5--5--5--5-|
D|-0-0-0-0-0---------3--3--3--3--3--3--3--8-8-8-8-8-8-8-8---5--5--5--5--5--5-|
   ...   ...                              ...   ...

Slow Part: (3x)             (1x)
e|-------------------------|-------------------------------------------------|
B|-------------------------|-------------------------------------------------|
G|-4~----------------------|-4~----------------------------------------------|
D|-4~----------------------|-4~----------------------------------------------|
A|-2~-------0~-------5~----|-2~-------0~-------2~----1-1-1-1-1-1-1-1-1-1-1-1-|
D|----------0~-------5~----|----------0~-------2~----1-1-1-1-1-1-1-1-1-1-1-1-|
                                                     .......................
Comments