Thrice - Deadbolt Chords & Tabs

 

Deadbolt Chords & Tabs

Thrice Chords & Tabs

Version: 2 Type: Bass Tab 0 ratings
1 star 2 stars 3 stars 4 stars 5 stars
comments

Deadbolt Bass Tab

   
DEADBOLT:     BASS TABS
Tuning: drop D

This is my first tab. deadbolt is a kikass song and the only tab that was posted
kinda sucked... so anywho. hope you enjoy it. if there are mistakes go easy on
me. just correct me. LEAVE COMMENTS.

INTRO: (x2)
G|-----------------------------------------------------------------|
D|-----------------------------------------------------------------|
A|-0-0-0-0-0-0-0-0-0-0-0-0-0-0-0-0-0-0-0-0-0-0-0-0-0-0-0-0-0-0-0-0-|
D|-0-0-0-0-0-0-0-0-0-0-0-0-0-0-0-0-0-0-0-0-0-0-0-0-0-0-0-0-0-0-0-0-|
   
G|-----------------------------------------------------------------|
D|-3-3-3-3-3-3-3-3-3-3-3-3-3-3-3-3-5-5-5-5-5-5-5-5-5-5-5-5-5-5-5-5-|
A|-1-1-1-1-1-1-1-1-1-1-1-1-1-1-1-1-3-3-3-3-3-3-3-3-3-3-3-3-3-3-3-3-|
D|-----------------------------------------------------------------|

VERSE: (x2)
G|-----------------------------------------------------------------|
D|-----------------------------------------------------------------|
A|-5-5-5-5-5-5-5-5-5-5-5-5-5-5-5-5-5-5-5-5-5-5-5-5-5-5-5-5-5-5-5-5-|
D|-5-5-5-5-5-5-5-5-5-5-5-5-5-5-5-5-5-5-5-5-5-5-5-5-5-5-5-5-5-5-5-5-|
  (When deadbolts awake you from déjà vu dreams...)
  (At four in the morning you know where I'll be...)

G|-----------------------------------------------------------------|
D|-----2-3-2-------2-3-2-------2-3-2-------2-3-2-------------------|
A|-----------------------------------------------------------------|
D|-0-0-------0-0-0-------0-0-0-------0-0-0-------------------------|

VERSE CONTINUED: (x1)
G|-----------------------------------------------------------------|
D|-3-3-3-3-3-3-3-3-3-3-3-3-3-3-3-3---------------------------------|
A|-1-1-1-1-1-1-1-1-1-1-1-1-1-1-1-1-5-5-5-5-5-5-5-5-7-7-7-7-7-7-7-7-|
D|---------------------------------5-5-5-5-5-5-5-5-7-7-7-7-7-7-7-7-|
   (Out running red lights asleep at the wheel...)

G|-----------------------------------------------------------------|
D|-0-0-2-0-3-0-0-5-3-0-0-2-3-2-0-0-2-0-3-0-0-5-3-0-0-2-3-2---------|
A|-----------------------------------------------------------------|
D|-----------------------------------------------------------------|

G|-----------------------------------------------------------------|
D|-3-3-3-3-3-3-3-3-3-3-3-3-3-3-3-3---------------------------------|
A|-1-1-1-1-1-1-1-1-1-1-1-1-1-1-1-1-5-5-5-5-5-5-5-5-7-7-7-7-7-7-7-7-|
D|---------------------------------5-5-5-5-5-5-5-5-7-7-7-7-7-7-7-7-|
   (The sirens feed my nightmares...)

CHORUS: (x2)
G|-----------------------------------------------------------------|
D|-----------------5-5x--------------------------------------------|
A|-0-0x------------3-3x---3-3x----8-8x----------5-5x----7-7x-------|
D|-0-0x-------------------3-3x----8-8x----------5-5x----7-7x-------|
 (I just close my eyes and I'm already there; it's already too late...)
[ Tab from: http://www.guitartabs.cc/tabs/t/thrice/deadbolt_btab_ver_2.html ]
 (I know its nothing but lies, but they sound so sincere; I find them too hard to hate)

CHORUS CONTINUED: (x2)
G|-----------------------------------------------------------------|
D|-----------------5-5-5-5-----------------------------------------|
A|-0-0-0-0-0-0-0-0-3-3-3-3-3-3-3-3-8-8-8-8-8-8-8-8-5-5-5-5-7-7-7-7-|
D|-0-0-0-0-0-0-0-0---------3-3-3-3-8-8-8-8-8-8-8-8-5-5-5-5-7-7-7-7-|
  (And she calls from the doorway "stolen water is sweet, so lets drink it in the
darkness if you know what I mean") (x2)

BRIDGE: 
G|-----------------------------------------------------------------|
D|-----------------------------------------------------------------|
A|-5-5-5-5-5-5-5-5-5-5-5-5-5-5-5-5-8-8-8-8-8-8-8-8-8-8-8-8-8-8-8-8-|
D|-5-5-5-5-5-5-5-5-5-5-5-5-5-5-5-5-8-8-8-8-8-8-8-8-8-8-8-8-8-8-8-8-|
  (And I'm almost sure that I've been here before, that this is not the first
time I've stood in front of this door...)

G|-----------------------------------------------------------------|
D|-----------------------------------------------------------------|
A|-5-5-5-5-5-5-5-5-5-5-5-5-5-5-5-5-7-7-7-7-7-7-7-7-7-7-7-7-7-7-7-7-|
D|-5-5-5-5-5-5-5-5-5-5-5-5-5-5-5-5-7-7-7-7-7-7-7-7-7-7-7-7-7-7-7-7-|
(With an overwhelming feeling that I shouldn't go in, but it seems this is a
battle that I never could win...)

INTERLUDE: (x2)
G|--------------------------------------------------------------------|
D|--------------------7—-7—-7-----------------------------------------|
A|-0-0-0-0-0-0-0-0-0--5—-5—-5--3—-3—-3—-3—-3—-3—-3--8-8-8-8-8-8-8-8-8-|
D|-0-0-0-0-0-0-0-0-0-----------3—-3—-3—-3—-3—-3—-3—-8-8-8-8-8-8-8-8-8-|
   . . . . . . . . .                                . . . . . . . . . 
  (AND YOU! MY TRUE LOVE! YOU CALL FROM THE HILLTOP! YOU CALL FROM THE STREETS!)

G|----------------------------------|
D|----------------------------------|
A|-8—-8—-8—--5—-5—-5—-5—-7—-7—-7----|
D|-8—-8—-8—--5—-5—-5—-5—-7—-7—-7----|

INTERLUDE CONTINUED: (x2)
G|--------------------------------------------------------------------|
D|-----------7-7-7----------------------------------------------------|
A|-0-0-0-0-0-5-5-5--3—-3—-3—-3—-3—-3—-3—-8-8-8-8-8-8-8-8—-------------|
D|-0-0-0-0-0--------3—-3—-3—-3—-3—-3—-3—-8-8-8-8-8-8-8-8--------------|
  (DARLING DON'T YOU KNOW, THE WATER IS POISON. AND I SAY! C'MON AND GIVE ME MY POISON)

G|------------------|
D|------------------|
A|-5—-5—-5—-5—-7—-7-|
D|-5—-5—-5—-5—-7—-7-|

ENDING: 
            (x3)                         (x1)
G|------------------------|-------------------------------------------------|
D|------------------------|-------------------------------------------------|
A|-4*-------0*-------5*---|-4*-------0*-------2*----------------------------|
D|-2*-------0*-------5*---|-2*-------0*-------2*----1-1-1-1-1-1-1-1-1-1-1-1-|
    (what have I done...?)(etc.)                      . . . . . . . . . .
Comments