Thrice - Cold Cash And Colder Hearts Chords & Tabs

 

Cold Cash And Colder Hearts Chords & Tabs

Thrice Chords & Tabs

Version: 3 Type: Tab 0 ratings
1 star 2 stars 3 stars 4 stars 5 stars
comments

Cold Cash And Colder Hearts Tab

   
Song: Cold Cash And Colder Hearts
Band: Thrice
Album: The Artist In The Ambulance


GUITAR 1'S PARTS:
-----------------
Verse:  "They are sick..."
d|--------------------------------------------------------------------------|
A|--------------------------------------------------------------------------|
F|5/7-------------------5/7-------------------3-3-3-3-3-3-3-3-3-3-3-3-------|
C|x-x-------3-3-3-3-3-3-x-x-------3-3-3-3-3-3-3-3-3-3-3-3-3-3-3-3-3-3-5-5-5-|
G|3/5-0-0-0-3-3-3-3-3-3-3/5-0-0-0-3-3-3-3-3-3-1-1-1-1-1-1-1-1-1-1-1-1-5-5-5-|
C|----0-0-0-3-3-3-3-3-3-----0-0-0-3-3-3-3-3-3-------------------------5-5-5-|

Verse Cont'd:
d|--------------------------------------------------------------------------|
A|--------------------------------------------------------------------------|
F|-----------------5/7-------------------5/7--------------------------------|
C|55-5-5-5-5-5-5-5-x-x-------3-3-3-3-3-3-x-x-------3-3-3-3-3-3-5-5-5-5-5-5-5|
G|55-5-5-5-5-5-5-5-3/5-0-0-0-3-3-3-3-3-3-3/5-0-0-0-3-3-3-3-3-3-5-5-5-5-5-5-5|
C|55-5-5-5-5-5-5-5-----0-0-0-3-3-3-3-3-3-----0-0-0-3-3-3-3-3-3-5-5-5-5-5-5-5|

Verse Cont'd:
d|--------------------------------------------------------------------------|
A|---------------------------------6-6-6-6-6-6-6-6-6-6-6-6------------------|
F|---------------------------------7-7-7-7-7-7-7-7-7-7-7-7-9-9-9-9-9-9-9-9-9|
C|55-5-5-5-8-8-8-8-8-8-8-8-8-8-8-8-5-5-5-5-5-5-5-5-5-5-5-5-8-8-8-8-8-8-8-8-8|
G|55-5-5-5-8-8-8-8-8-8-8-8-8-8-8-8-5-5-5-5-5-5-5-5-5-5-5-5-8-8-8-8-8-8-8-8-8|
C|55-5-5-5-8-8-8-8-8-8-8-8-8-8-8-8-5-5-5-5-5-5-5-5-5-5-5-5-8-8-8-8-8-8-8-8-8|

Verse Cont'd:
d|------|
A|------|
F|9-9-9-|
C|8-8-8-|
G|8-8-8-|
C|8-8-8-|

Post Verse:  "...world, feeling alright..."
d|--------------------------------------------------------------------------|
A|10-10-----10--10---------6-6-6-6-6-6-6-6-6-6-6-6--------------------------|
F|10-10-----10--10---------7-7-7-7-7-7-7-7-7-7-7-7-9-9-9-9-9-9-9-9-9-9-9-9--|
C|-7--7------7---7---------5-5-5-5-5-5-5-5-5-5-5-5-8-8-8-8-8-8-8-8-8-8-8-8--|
G|------0-0--------0-0-0-0-5-5-5-5-5-5-5-5-5-5-5-5-8-8-8-8-8-8-8-8-8-8-8-8--|
C|------0-0--------0-0-0-0-5-5-5-5-5-5-5-5-5-5-5-5-8-8-8-8-8-8-8-8-8-8-8-8--|
         ...        .......

Bridge:  "We hold our own..."
d|--------------------------------------------------------------------------|
A|--------------------------------------------------------------------------|
F|1010-10-10-10-10-10-10-10-10-10-10-9-9-9-9-9-9-9-9-9-9-9-9-6-6-6-6-6-6-6-6|
C|--------------------------------------------------------------------------|
G|--------------------------------------------------------------------------|
C|--------------------------------------------------------------------------|
  ...........................................................................

Bridge Cont'd:
d|--------------------------------------------------------------------------|
A|--------------------------------------------------------------------------|
F|66-6-6-7-7-7-7-7-7-7-7-7-7-7-7-12-12-12-12-12-12-12-12-12-12-12-12-10-10--|
C|--------------------------------------------------------------------------|
G|--------------------------------------------------------------------------|
C|--------------------------------------------------------------------------|
  .........................................................................
Bridge Cont'd:
d|--------------------------------------------------------------------------|
A|--------------------------------------------------------------------------|
F|1010-10-10-10-10-10-10-10-10-9-9-9-9-9-9-10-10-10-10-10-10-7-7-7-7-7-7-7-7|
C|--------------------------------------------------------------------------|
G|--------------------------------------------------------------------------|
C|--------------------------------------------------------------------------|
  .........................................

Bridge Cont'd:
d|-----------|
A|-----------|
F|7-7-7-7----|
C|-----------|
G|-----------|
C|-----------|

Repeat Verse:  (With ring out on chords at end)

Repeat Post Verse
[ Tab from: http://www.guitartabs.cc/tabs/t/thrice/cold_cash_and_colder_hearts_tab_ver_3.html ]
Bridge:  "We've learned money..."
d|-------6-5---------------6-5----------------------------------------------|
A|---8-------6-6~------8-------6-6~----------6-5-----------------6-5--------|
F|-7---7-------------7---7---------------7-------5-5h7~------7-------5-5h7~-|
C|5----------------5-------------------7---7---------------7---7------------|
G|-----------------------------------5-------------------5------------------|
C|--------------------------------------------------------------------------|

(add filler notes)

Bridge Cont'd:
d|--------6-5---------------6-5---------|
A|----8-------6-6~------8-------6-6~----|
F|--7---7-------------7---7-------------|
C|5-----------------5-------------------|
G|--------------------------------------|
C|--------------------------------------|

Repeat 1st Bridge

Next Part:  "And we've learned what matters..."  (You figure out strumming)
d|-------------------------------------------------|
A|-------------------------------------------------|
F|10>---9>---6>---7>---12>---10>---9>---10>---7>---|
C|-x----x----x----x-----x-----x----x-----x----x----|
G|-8>---7>---4>---5>---10>----8>---7>----8>---5>---|
C|-------------------------------------------------|

Rock Out Outro:  "They are no one..."
d|--------------------------------------------------------------------------|
A|10-10-----10--10---------10--10-----10--10---------10--10-----10--10------|
F|10-10-----10--10---------10--10-----10--10----------9---9------9---9------|
C|-7--7------7---7----------7---7------7---7----------7---7------7---7------|
G|------0-0--------0-0-0-0--------0-0--------0-0-0-0--------0-0--------0-0--|
C|------0-0--------0-0-0-0--------0-0--------0-0-0-0--------0-0--------0-0--|
         ...        .......        ...        .......        ...        ...

Rock Out Outro Cont'd:
d|--------------------------------------------------------------------------|
A|---10--10-----10--10----------10---10---10---10---10---10---10---10-------|
F|----9---9------9---9----------10---10---10---10---10---10---10---10-------|
C|----7---7------7---7-----------7----7----7----7----7----7----7----7-------|
G|00--------0-0--------0-0-0-0-----0----0----0----0----0----0----0----0-----|
C|00--------0-0--------0-0-0-0-----0----0----0----0----0----0----0----0-----|
  ...        ...        .......     .    .    .    .    .    .    .    .

Rock Out Outro Cont'd:
d|-------------------------------------------------------|
A|10--10-----10--10---------10--10-----10--10------------|
F|-9---9------9---9----------9---9------9---9------------|
C|-7---7------7---7----------7---7------7---7------------|
G|-------0-0--------0-0-0-0--------0-0--------0-0-0-0----|
C|-------0-0--------0-0-0-0--------0-0--------0-0-0-0----|
         ...        .......        ...        .......

Ending:  (Play til the strings come in)
d|--12>---|
A|--13>---|
F|--------|
C|--------|
G|--------|
C|--------|


GUITAR 2'S PARTS:
-----------------
Verse:  (Same as Guitar 1)

Post Verse:  (Same as Guitar 1)

Bridge:  "We hold our own..."
d|--------------------------------------------------------------------------|
A|--------------------------------------------------------------------------|
F|--------------------------------------------------------------------------|
C|--------------------------------------------------------------------------|
G|55-5-5-5-5-5-5-5-5-5-5-10-10-10-10-10-10-10-10-10-10-10-10-7-7-7-7-7-7-7-7|
C|--------------------------------------------------------------------------|
  ...........................................................................

Bridge Cont'd:
d|--------------------------------------------------------------------------|
A|--------------------------------------------------------------------------|
F|--------------------------------------------------------------------------|
C|-------------------------------8-8-8-8-8-8-8-8-8-8-8-8-7-7-7-7-7-7-7-7-7-7|
G|7-7-7-7-8-8-8-8-8-8-8-8-8-8-8-8-------------------------------------------|
C|--------------------------------------------------------------------------|
  ...........................................................................

Bridge Cont'd:
d|---------------------------------------------------------|
A|---------------------------------------------------------|
F|---------------------------------------------------------|
C|7-7------------------------------------------------------|
G|----7-7-7-7-7-7-8-8-8-8-8-8-5-5-5-5-5-5-5-5-5-5-5-5------|
C|---------------------------------------------------------|
  ...

Repeat Verse

Repeat Post Verse

Bridge:  (Only Guitar 1)

Repeat 1st Bridge

Next Part:  "We've learned what matters..."  (You figure out strumming)
d|----------------------------------------------|
A|----------------------------------------------|
F|----------------------------------------------|
C|0>---5>---7>---0>---8>--------2>--3>--0>------|
G|0>---5>---7>---0>---8>---8>---2>--3>--0>------|
C|0>---5>---7>---0>---8>---7>---2>--3>--0>------|

Outro:  (Same as guitar 1)

Ending:  (Only guitar 1)


----------
Thnx to Sqweeky
Comments