Thrice - Cold Cash And Colder Hearts Chords & Tabs

 

Cold Cash And Colder Hearts Chords & Tabs

Thrice Chords & Tabs

Version: 1 Type: Bass Tab 0 ratings
1 star 2 stars 3 stars 4 stars 5 stars
comments

Cold Cash And Colder Hearts Bass Tab

   
F-------------------------------------------------------------------------------------|
C-------------------------------------------------------------------------------------|
G-3h5---------3h5-----------------------3h5---------3h5-------------------------------|
C-----0-0333h5----0-0333h58-888785-55532----0-0333h5----0-0333h55-555328-88878-5----8-|

F-10-10-10-----10-10-10--------------|
C------------------------------------|
G------------------------------------|
C----------0-0----------0000-5-----8-|

F-----------------------------333333-222222-----------------|
C--------555555-222222-333333---------------222-333---------|
G-555555--------------------------------------------555-----|
C-------------------------------------------------------000-|

F-------------------------------------------------------------------------------------------|
C-------------------------------------------------------------------------------------------|
G-3h5---------3h5-----------------------3h5---------3h5------------------------87-87--------|
C-----0-0333h5----0-0333h58-888885-55555----0-0333h5----0-0333h55-555555-888888--8--5----8--|
[ Tab from: http://www.guitartabs.cc/tabs/t/thrice/cold_cash_and_colder_hearts_btab.html ]
F-10-10-10-----10-10-10--------------------|
C------------------------------------------|
G------------------------------------------|
C----------0-0----------0000-5-----8-----5-| (Goes to break)

F-----------------------------333333-222222-----------------|
C--------555555-222222-333333---------------222-333---------|
G-555555--------------------------------------------555-----|
C-------------------------------------------------------000-|

F-------------------------------------------------------|
C-------------------------------------------------------|
G-------------------------------------------------------|
C-000000-555555-772233333-8-888-10-8-7777-222333-000000-|

F-10-10-10-----10-10-10------10-10-10-----10-10-10-----|
C------------------------------------------------------|
G------------------------------------------------------|
C----------0-0----------0000----------0-0---------0000-|

F--9--9--9------9--9--9-------9--9--9------9--9--9-----|
C------------------------------------------------------|
G------------------------------------------------------|
C----------0-0----------0000----------0-0---------0000-|
Comments